Eu quero acreditar
Rouge
Acordes

Subida por Debra
Álbum: Blá blá blá ( 2004)


Más Versiones
Ver. 2 Ver. 3 Ver. 4 Ver. 5 Ver. 6

Cambiar Cifrado
Americano Latino

Cambiar Tonalidad
-1 +1

Partir Pantalla Imprimir FAQ

+A
-A
Mudar para Português

Ver solo la LETRA
Intro: Bm G D A
Bm G D A

Bm
Não vou me entregar
G
Á sua tentação
D
Seu corpo me chamando
A
A pura perdição
Bm A
Me ganhou e depois fugiu


Bm
Tento te esquecer
G
Más só vejo você
Bm A
Fingir que nunca me viu


Bm
Você me prendeu
G
No seu coração
D A
Seu beijo foi pura ilusão


G
Quero acreditar
Bm
Que vou conseguir
D A
Se você não estiver mais aqui
G
Vou te esquecer
Bm
Vou sobreviver
D A
Descobrir uma nova paixão
Bm A
Longe da sua ilusão


Bm G D A


Bm
Não vou esperar
G
Até você se decidir
D
Se quer ficar comigo
A
Vai ter que me seguir
Bm A
Não perco a direção


Bm
Quero me entregar
G
Brigar pra ser fliz
Bm A
O amor vai voltar em mim


Bm
Você me prendeu
G
No seu coração
D A
Seu beijo foi pura ilusão(Euuuu!)


G
Quero acreditar
Bm
Que vou conseguir
D A
Se você não estiver mais aqui
G
Vou te esquecer
Bm
Vou sobreviver
D A
Descobrir uma nova paixão
Bm A
Longe da sua ilusão


(Solo)
Bm G
Agora eu sei que posso encontrar
D A
Alguem que me faça feliz
G Bm
Os olhos que vão me alcançar
D A
Como um sol


G
Quero acreditar
Bm
Que vou conseguir
D A
Se você não estiver mais aqui(vou conseguir!)
G
Vou te esquecer
Bm
Vou sobreviver(yeeah!)
D A
Descobrir uma nova paixão
Bm A
Quero ser feliz!!!


G
Quero acreditar
Bm
Que vou conseguir(yeeah!)
D A
Se você não estiver mais aqui
G
Vou te esquecer
Bm
Vou sobreviver
D A
Descobrir uma nova paixão(paixão!)
Bm A
Longe da sua ilusão


Bm G D A
Bm G D A

------------------------------------------

(Solo)

Bm G
|-2--------2---------3--------3-----------
|----3------------------3-----------------
|-------4------------------0--------------
|-----------------------------------------
|-----------------------------------------
|-----------------------------------------
"Agora eu sei que posso encontrar"

D A
|-2---------2---------0--------0----------
|-----3------------------3----------------
|--------2------------------3-------------
|-----------------------------------------
|-----------------------------------------
|-----------------------------------------
"Alguem que me faça feliz"

G Bm
|-3--------3---------2--------2-----------
|----3------------------3-----------------
|-------0------------------4--------------
|-----------------------------------------
|-----------------------------------------
|-----------------------------------------
"Os olhos que vão me alcançar"

D A
|-2---------2---------0--------0----------
|-----3------------------3----------------
|--------2------------------3-------------
|-----------------------------------------
|-----------------------------------------
|-----------------------------------------
"Como um sol"

ACORDES PARA GUITARRA

PIANO UKELELE
Bm
G
D
A


COMENTARIOS

Aún no hay comentarios,

¡escribe el primero!

Escribe una pregunta, duda o comentario sobre esta canción, te responderemos a la brevedad.

Las más tocadas de Rouge

Toca una Canción al Azar de Rouge
Bm
G
D
A