c ▷ DANGEROUS: (Roxette) Acordes para Guitarra, Piano & Ukelele

Compartir


Imprimir FAQ
+A
-A

Texto

Desplazamiento

Transportador

Color de Fondo

Archivos

-A
+A
Intro:
 D5 / E5    D5 / E5    D5 / E5    D5 / E5
 E  B  C#m  A  E B

               C#5
 You pack your bag, you take control
               B
 You're moving into my heart and into my soul
               C#5
 Get out of my way! Get out of my sight!
            B
 I won't be walking on thin ice to get throught the night
                  E                 C#m
 Hey where's your work? What's your game?
             A                                     A A
 I know your business but I don't know your name...

 E                                          B
 Hold on tight, you know she's a little bit dangerous
                            C#m
 She's got what it takes to make ends meet,
                          A
 The eyes of a lover that hit like heat
                             E           B
 You know she's a little bit dangerous

          C#5
 You turn around, so hot and dry,
               B
 You're hiding under a halo, your mouth is alive
               C#5
 Get out of my way! Get out of my sight!
           B
 I'm not attracted to go-go deeper tonight
                 E                 C#m
 Hey what's your word? What's your game?
             A
 I know your business but I don't know your name...

 E                                          B
 Hold on tight, you know she's a little bit dangerous
                            C#m
 She's got what it takes to make ends meet,
                          A
 The eyes of a lover that hit like heat
                             E
 You know she's a little bit dangerous
                      B
 Oh just a little bit dangerous...

 [Harmonica / guitar solo]

solo:
E|-------9p7----------------------------------------------------------
B|---5-7----9----------------7~7~7p5---7-7-5-7-5-4h5p4----5-5~5~--5~--
G|-6~---------9-9/8/9/8/6/9~---------6-----------------6-4------6-----
D|--------------------------------------------------------------------
A|--------------------------------------------------------------------
E|--------------------------------------------------------------------

E|-------------------------8-8-----8-8----8-8-----8-8-5/9-8/9-8/9-7-9-9-7--------
B|-5p4------------------/8--8-8--/8-8-8-/8-8-8--/8-8----------------------7p5-5--
G|----6-4/6---6p4----------------------------------------------------------------
D|---------------6-4-------------------------------------------------------------
A|-------------------4~----------------------------------------------------------
E|-------------------------------------------------------------------------------


                  E                 C#m
 Hey what's your word? What's your game?
             A
 I know your business but I don't know your name...

 [Chorus with no guitar]

 [Chorus to fade]

Video Clip de Dangerous


ACORDES PARA GUITARRA

PIANO UKELELE
D5
E5
E
B
C#m
A
C#5


TOP 20: Las más tocadas de Roxette


Toca una Canción al Azar de Roxette

Acordes

Cerrar
D5
E5
E
B
C#m
A
C#5

08.52

x

235