Do You Get (Acordes)

Roxette

Subida por martha


Imprimir FAQ
+A
-A

Texto

Desplazamiento

Transportador

Color de Fondo

Herramientas

TAMAÑO
TONALIDAD
+A
subir tono+ (F4)
-A
bajar tono- (F2)
    
Intro 4x:  D A/C# Bm G/F#

           D  A/C#
When the day gets dark
     Bm     G/F#
Over a thousand streets
            D A/C#            G7+
And you feel your heart     is a living beat.
         D  A/C#         Bm      G/F#
When you're all alone     and you close your eyes,
            D A/C#
Naked to the bone
              G     A/G G7+ A
The dream comes alive.
           Dm    C    Bb      F
Do you get exci...................ted
       Dm               C/E      Bb     C
When I touch you in the night? my oh my...
             F  C     Bb          F
Do you get exci....................ted
      Dm              Em
When I meet you every night?
           Bb     A             D  A G7+ A
You won't let the night pass you by

(Intro)

(Riff)
E|--------------------------------------------------
B|--------------------------------------------------
G|--------------------------------------------------
D|-7h9p7-9-9-7-7-----------------------------------
A|---------------5h7p5-7-7--------------------------
E|-------------------------5-7---------------------

E|--------------------------------------------------
B|--------------------------------------------------
G|--------------------------------------------------
D|-7h9p7-9-9-7-7-5/8-5/8---------------------------
A|----------------3/6-3/6--5h7p5-7-7----------------
E|------------------------------ ---5-7-------------

        D  A/C#               Bm    G/F#
When your body's hot,         the window's open wide
              D  A/C#                   G7+
This moment's all you got         in this race of life
           D   A/C#               Bm      G/F#
When you feel the fire         is getting close to you,
           D A/C#          G   A/G   G7+ A
Hey baby, you know       I'm lonely too.
             Dm      C    Bb      F
Do you get exci...................ted
       Dm               C/E      Bb   C
When I touch you in the night? my oh my...
             F  C     Bb          F
Do you get exci....................ted
       Dm             Em
When I meet you every night?
           Bb      A             D A G7+ A
You won't let the night pass you by

Base solo: Cm7 A# G# D#    
         ( Fm7 G# )
         ( A#m7 G# F# C# )
         ( D#m7 F# )
         ( Cm D# )
         ( Cm D# )

Solo:
E|-------------------------------------------------------------
B|-----------------------10--------------------9--------------
G|-3h5-31-3-1-0-1-0---------8h10-10-10-10b~~~p8-10-10-10~~~p8-
D|-------------------3-1-7------------------------------------
A|-------------------------------------------------------------
E|-------------------------------------------------------------

E|---------------9-11-11~-------------------------
B|-------------------------------------------------
G|----8h10-10-10?6/8--8~--------------------------
D|-10----------------------------------------------
A|-------------------------------------------------
E|-------------------------------------------------

E|--------------------------------------------------
B|--------------------------------------------------
G|-------------------------6/8-8-------------------
D|--6h8-64-6-4-3-4-3-------------------------------
A|-------------------6-4~--3/6-8-------------------
E|--------------------------------------------------

E|------------------------------------------------6-9-----------
B|---------------7--------------9---------------9b----9-7-------
G|-6h8-8-8-8~~p6---8-8-8-8~~~p6---8-8-8-8~~~p6------------8~~--
D|---------------------------------------------8----------------
A|--------------------------------------------------------------
E|--------------------------------------------------------------

E|--------------------------------------------------
B|------------------------4-------------------------
G|-------------------------3------------------------
D|----------1-1-1-1~xxx--1-------1------------------
A|-1h3-3-3~-----------------1-4--------------------
E|--------------------------------------------------

E|--------------------------------------------------
B|------------------------4-------------------------
G|-------------------------3------------------------
D|----------1-1-1-1~xxx--1-------1------------------
A|-1h3-3-3~-----------------1-4--------------------
E|--------------------------------------------------

             Fm    Eb      C#     G#
Do you get exci....................ted
        Dm              Eb     C#    Eb
When I touch you in the night? My oh my...
             G#   Eb   C#  G#
Do you get exci....ted? Excited
       Fm              Eb    C#    C
When I meet you every night? My oh my...
             Fm     Eb   C#   G#
Do you get exci.....ted? Excited
        Dm               Eb      C#    Eb
When I touch you in the night? My oh my...
             G#    Eb      C#     G#
Do you get exci...................ted?
       Fm              Eb
When I meet you every night?
           C#     C              F    C  Bb C
You won't let the night pass you by.. uhuh..
Dm     F
    I wanna know..
Dm     F
    I gotta know...

HERRAMIENTAS ACORDESWEB:


LETRA DE LA CANCIÓN:

Ver la letra sola (sin acordes)

OTRAS VERSIONES DE LA MISMA CANCIÓN:

Ver. 2 Ver. 3 Ver. 4 Ver. 5 Ver. 6

DESCARGAR PDF / IMPRIMIR CANCIÓN



ACORDES PARA

d
D
ac
A/C#
bm
Bm
gf
G/F#
gmaj7
Gmaj7
g
G
ag
A/G
a
A
dm
Dm
c
C
bb
Bb
f
F
ce
C/E
em
Em
cm7
Cm7
a
A#
g
G#
d
D#
fm7
Fm7
am7
A#m7
f
F#
c
C#
dm7
D#m7
cm
Cm


TOP 20: Las más tocadas de Roxette