Oh, Pretty Woman
Roy Orbison
Acordes

Subida por Matias198650
Álbum: Orbisongs ( 1965)
Introdução: 

E|-----------------------------------------------------|
B|-----------------------------------------------------|
G|-----------------------------------------------------|
D|---------0---------------0---------------------------|
A|-------2---------------2-----------------------------|
E|-0-0-4-----------0-0-4-------------------------------|

E|-----------------------------------------------------|
B|-----------------------------------------------------|
G|-----------------------------------------------------|
D|---------0-4-2-0---------0-4-2-0---------------------|
A|-------2---------------2-----------------------------|
E|-0-0-4-----------0-0-4-------------------------------|

E|-----------------------------------------------------|
B|-----------------------------------------------------|
G|-----------------------------------------------------|
D|---------0-4-2-0---------0-4-2-0---------------------|
A|-------2---------------2-----------------------------|
E|-0-0-4-----------0-0-4-------------------------------|


Primeira Parte:

A
Pretty woman
F#m
Walkin' down the street
A
Pretty woman
F#m
The kind I like to meet
D
Pretty woman
E
I don't believe you

You're not the truth
(Riff)
No one could look as good as you

Mercy

A
Pretty woman
F#m
Won't you pardon me
A
Pretty woman
F#m
I couldn't help but see
D
Pretty woman
E
That you look lovely

As can be
(Riff)
Are you lonely just like me?


Segunda Parte:

Dm
Pretty woman
G
Stop awhile
C
Pretty woman
Am
Talk awhile
Dm
Pretty woman
G C
Give your smile to me

Dm
Pretty woman
G
Yeah, yeah, yeah
C
Pretty woman
Am
Look my way
Dm
Pretty woman
G C A
Say you'll stay with me


Terceira Parte:

F#m
'Cuz I need you
D E
I'll treat you right
A F#m
Come with me baby
D E
Be mine tonight

(Riff)

Quarta Parte:

A
Pretty woman
F#m
Don't walk on by
A
Pretty woman
F#m
Don't make me cry
D
Pretty woman
E
Don't walk away, hey, ok

If that's the way it must be, ok


I guess I'll go on home, it's late

There'll be tomorrow night, but wait

What do I see?

(Riff)


Is she walkin' back to me?

Yeah, she's walkin' back to me

Oh, oh, pretty woman



Otras Versiones

Cambiar Cifrado
Americano Latino

Cambiar Tonalidad
-1 +1

Partir Pantalla Imprimir FAQ

Ver solo la LETRA

+A
-A

ACORDES PARA GUITARRA

PIANO UKELELE
A
F#m
D
E
Dm
G
C
Am



COMENTARIOS

Aún no hay comentarios,

¡escribe el primero!

Escribe un comentario o pregunta sobre esta canción


TOP 20: Las más tocadas de Roy Orbison

Ver más

Toca una Canción al Azar de Roy Orbison
A
F#m
D
E
Dm
G
C
Am

Nuestro servidor se demoró 0.02 segundos en generar esta página. Eso fue realmente muy rápido!