Dark Is The Night

Ry Cooder

Acordes

Ry Cooder (1970)
Subida por Trovadicto



Cambiar Cifrado
Americano Latino

Cambiar Tonalidad
-1 +1

Partir Pantalla Imprimir FAQ

+A
-A

Tuning: C G E C G F
Key:
/ - slide up
- slide down
h - hammer on
p - pull off
s - slide between notes
# - note played slightly sharp


C|---------------------------------------------------------|
G|---------------------------------------------------------|
E|---------------------------------------------------------|
C|----0--/3~~--/5~~--/5--3/5--/7~~----23/2---0-----------|
G|---------------------------------------------------------|
C|----0--/3~~--/5~~--/5--3/5--/7~~----23/2------0--------|


C|-----/7--2---/43/4------/7----/1211/12~----/5--/76/7--|
G|---------------------------------------------------------|
E|---------------------------------------------------------|
C|--0--------------------0---------------------------------|
G|---------------------------------------------------------|
C|-----------0---------0-----------------------/5----------|

C|--2--0-----0-0--/32---/76/7---0-0--/3--2---/3--2-------|
G|---------------------------------------------------------|
E|---------------------------------------------------------|
C|-------0---------0--------------------0------------------|
G|---------------------------------------------------------|
C|---------------------------------------------------------|

C|-0----------------/4---/42-0----------------------------|
G|---0--/35/35~----------------0-/7--/5--0-/#3--/5--3--0|
E|---------------------------------------------------------|
C|---------------------------------------------------------|
G|-------------------------------0-/7--/5----/#3--/5-------|
C|-------------------0-------------------------------------|

C|---------------------------------------------------------|
G|---------------------------------------------------------|
E|---------------------------------------------------------|
C|--0-/3--/5--/7--/4~---0-/4-/5-/75-4~~-2--0------------|
G|---------------------------------------------------------|
C|--0-/3--/5--/7--/4~---0-/4-/5-/75-4~~-2-----0---------|


C|--/4--42-0--------/16--12---------------------0-----/7-|
G|--------------/14------------/14--/1211/12~-------------|
E|---------------------------------------------------------|
C|--------------------------------------------------0------|
G|---------------------------------------------------------|
C|----------------------------------------------------0----|


C|--/4p0--/4--/42-0---43/47/9~----0-----2---0-42/4-----|
G|---------------------------------------------------------|
E|---------------------------------------------------------|
C|-------------------------------------0-------------------|
G|---------------------------------------------------------|
C|---------------------------------------0-------0---------|


C|--/5-4------/4--/43/2p0--------------------------------|
G|--------/5~-----------------0-/7--5--/3-0-/5--3-0------|
E|---------------------------------------------------------|
C|---------------------------------------------------------|
G|----------------------------0-/7--5-------/5--------0---|
C|--------------0------------------------------------------|

C|----------------------------------------------------/7p0-|
G|---------------------------------------------------------|
E|---------------------------------------------------------|
C|----0--/3~~--/5~~--/5--3/5--/7~~----23/2---0-----------|
G|---------------------------------------------------------|
C|----0--/3~~--/5~~--/5--3/5--/7~~---------------0--------|


C|----/43/4---/7---/1211/12~---------5---/76/7---2--0---|
G|---------------------------------------------------------|
E|---------------------------------------------------------|
C|-------------------------------3#/5----------------------|
G|---------------------------------------------------------|
C|--0----------0-----------------3#/5----------------------|


C|0-0--/3--2--/76/7/9p0--0-0-/32--0-/3-2--0--------------|
G|--------------------------------------------0--/35/4-/5~|
E|---------------------------------------------------------|
C|---------------------------------------------------------|
G|-----0-----------------------0-------0-------------------|
C|---------------------------------------------------------|


C|--/4--42p0---------------------------------------/12~---|
G|--------------0--0--/7--/5~---0--/3--/5~--3-0----/12~---|
E|--------------------------------------------------/12~---|
C|--------------------------------------------------/12~---|
G|--------------------/7--/5~------/3--/5~--3-0-----------|
C|--0------------------------------------------------------|

NUEVO FORO DE MÚSICA

¿Tienes alguna duda, consulta, pregunta, consejo o algo para compartir sobre esta canción?

¡Puedes abrir un hilo en el FORO para que la comunidad te ayude! Hacer una pregunta

ACORDES PARA GUITARRA

PIANO UKELELE


Las más tocadas de Ry Cooder