I'm Not The Only One
Sam Smith
Acordes

Subida por jose
Álbum: In the Lonely Hour ( 2014)


Más Versiones
Ver. 2 Ver. 3 Ver. 4

Cambiar Cifrado
Americano Latino

Cambiar Tonalidad
-1 +1

Partir Pantalla Imprimir FAQ

+A
-A


Ver solo la LETRA
Intro:

1
E G#7 C#m A
E|-------------------------4------0--0--0---|
B|------0--0-------------5-5-x--5-5--5--5---|
G|-0h1-----1--1---5-5--x-6-6-x--6-6--6--6---|
D|---------2------4-4--x-6---x--7-7--7------|
A|---------x-----------x-4---x--0-0--x------|
E|-0-------x------4-4--x-------------x------|

2
E B9 E
E|------------------------------0-0--0--0---|
B|------0--------------------x--0-0--0--0---|
G|-0h1-----1------4-4--x--1--x--1-1--1--1---|
D|---------x--2---4-4--x--2--x--2-2--2--2---|
A|---------x------2-2--x--2--x-------x------|
E|-0-------x-----------x--0----------x------|


E G#7 C#m A (3x)
E B9 E


Primeira Parte::

E G#7 C#m A
You and me we made a vow
E G#7 C#m A
For better or for worse
E G#7 C#m A
I can't believe you let me down
E B9 E
But the proof's in the way it hurts
G#7 C#m A
For months on end I've had my doubts
E G#7 C#m A
Denying every tear
E G#7 C#m A
I wish this would be over now
E B9 E
But I know that I still need you here


Refrão:

1
E G#7 C#m A
E|-------------------------4------0--0--0---|
B|------0--0-------------5-5-x--5-5--5--5---|
G|-0h1-----1--1---5-5--x-6-6-x--6-6--6--6---|
D|---------2------4-4--x-6---x--7-7--7------|
A|---------x-----------x-4---x--0-0--x------|
E|-0-------x------4-4--x-------------x------|

2
E G#7 C#m B9 A
E|----------------------------------0--0--0-|
B|------0--0-------------5---2-x-2-2--2--2-|
G|-0h1-----1--1---5-5--x-6---4-x-2-2--2--2-|
D|---------2------4-4--x-6---4-x-2-2--2----|
A|---------x-----------x-4---2-x-0-0--x----|
E|-0-------x------4-4--x---------------x----|

3
E B7(9) E B7(9)
E|-------------------------0------2--2--2---|
B|------0---------2-2------0-x--2-2--2--2---|
G|-0h1-----1------2-2--x-1-1-x--2-2--2--2---|
D|---------x--2---4-4--x-2-2-x--4-4--4--4---|
A|---------x------2-2--x-2---x--2----x------|
E|-0-------x-----------x-0-----------x------|

Variação 3

E B7(9) E
E|------------------------------0-0--0--0---|
B|------0---------2-2--------x--0-0--0--0---|
G|-0h1-----1------2-2--x--1--x--1-1--1--1---|
D|---------x--2---4-4--x--2--x--2-2--2--2---|
A|---------x------2-2--x--2--x-------x------|
E|-0-------x-----------x--0----------x------|


E G#7 C#m A
You say I'm crazy
E
Cause you don't think
G#7 C#m A
I know what you've done
E G#7 C#m B9 A
But when you call me baby
E B7(9) E B7(9)
I know I'm not the only one


Repete a Primeira Parte:

E G#7 C#m A
You've been so unavailable
E G#7 C#m A
Now sadly I know why
E G#7 C#m A
Your heart is unobtainable
E B9 E
Even though Lord knows you have mine


Repete o Refrão:

E G#7 C#m A
You say I'm crazy
E
Cause you don't think
G#7 C#m A
I know what you've done
E G#7 C#m B9 A
But when you call me baby
E B7(9) E B7(9)
I know I'm not the only one


Segunda Parte:

A E
I have loved you for many years
G#7 C#m B9
Maybe I am just not enough
A E
You've made me realise my deepest fear
B7(9)
By lying and tearing us up


Refrão Final:

E G#7 C#m A
You say I'm crazy
E
Cause you don't think
G#7 C#m A
I know what you've done
E G#7 C#m B9 A
But when you call me baby
E B7(9) E
I know I'm not the only one

G#7 C#m A
You say I'm crazy
E
Cause you don't think
G#7 C#m A
I know what you've done
E G#7 C#m B9 A
But when you call me baby
E B7(9) E
I know I'm not the only one

G#7 C#m A
I know I'm not the only one

E G#7 C#m A
I know I'm not the only one
E G#7
And I know, and I know, and I know
C#m B9
And I know, and I know, and I know,
A
'Know
E B7(9) E
I know I'm not the only one

ACORDES PARA GUITARRA

PIANO UKELELE
E
G#7
C#m
A
B9
B9


COMENTARIOS

Aún no hay comentarios,

¡escribe el primero!

Escribe una pregunta, duda o comentario sobre esta canción, te responderemos a la brevedad.

Las más tocadas de Sam Smith

Toca una Canción al Azar de Sam Smith
E
G#7
C#m
A
B9
B9