Heart Of Sword (Acordes)

Samurai X

Subida por Libermman

Compartir


Imprimir FAQ
+A
-A

Texto

Desplazamiento

Transportador

Color de Fondo

Archivos

-A
+A
----------------------------------------9--12--9------7-----7-------------------------
------------------------------------10------------10-----7----------------------------
-----6--7--9--6--6--7--9--7--9--11----------------------------------------------------
--9-----------------------------------------------------------------------------------
--------------------------------------------------------------------------------------
--------------------------------------------------------------------------------------

        B    R                                               B    R  P
--10--12^(14)^12--12--10--9-----------------------------------------------------------
-----------------------------10--------------------10------12^(14)^12^10--------------
---------------------------------9-------------11------11-----------------------------
------------------------------------12--11~~~-----------------------------------------
--------------------------------------------------------------------------------------
--------------------------------------------------------------------------------------

               B            B
----------------------10--12^(14)-----------------------------------------------------
---------10--12^(14)------------------------------------------------------------------
--9--11-------------------------------------------------------------------------------
--------------------------------------------------------------------------------------
--------------------------------------------------------------------------------------
--------------------------------------------------------------------------------------

(2nd solo)
    B                                                        B    R
-----------8--10--11--10--------------------------------------------------------------
--11^(13)-----------------11----------------------------------------------------------
------------------------------10--8-----------------8--10--10^(12)^-------------------
-------------------------------------12--12--8--10------------------------------------
--------------------------------------------------------------------------------------
--------------------------------------------------------------------------------------

    P H  P    H P            P                     B
--------------------------------------------------------------------------------------
-------------------------------------------------18^(20)~~~---------------------------
--10^8^10^8--7^8^7------7-------------------------------------------------------------
--------------------10-----10^8--10--12--12-------------------------------------------
---------------------------------------------10---------------------------------------
--------------------------------------------------------------------------------------

        B
--18--18^(20)--18--15-----------------------------------------------------------------
-----------------------18--16-----------------15--16----------------------------------
-------------------------------15--17-----17----------15--17----15--17--15------------
----------------------------------------------------------------------------15--17----
--------------------------------------------------------------------------------------
--------------------------------------------------------------------------------------

       /--------4X---------

-------|-----------18------|----------------------------------------------------------
-------|---15--16------16--|--15--15------15------------------------------------------
-------|*------------------|----------17------15--17----------------------------------
--13---|*------------------|--------------------------15--17--13--15--12--13----------
-------|-------------------|----------------------------------------------------------
-------|-------------------|----------------------------------------------------------

--------------------10--8~~~----------------------------------------------------------
-----------------8--------------------------------------------------------------------
----------8--10-----------------------------------------------------------------------
--10--12------------------------------------------------------------------------------
--------------------------------------------------------------------------------------
--------------------------------------------------------------------------------------

(refrão) G A F# B G A B

(refrão depois solo) Ab Bb G C Ab Bb C

(verso) A B

----------17--------------------------------------------------------------------------
--19--17------------------------------------------------------------------------------
--------------19--16--17--16----------------------------------------------------------
------------------------------16------16----------------------------------------------
----------------------------------16--------------------------------------------------
--------------------------------------------------------------------------------------

HERRAMIENTAS ACORDESWEB:


LETRA DE LA CANCIÓN:

Ver la letra sola (sin acordes)

OTRAS VERSIONES DE LA MISMA CANCIÓN:

Ver. 2 Ver. 3 Ver. 4 Ver. 5 Ver. 6

DESCARGAR PDF / IMPRIMIR CANCIÓN



ACORDES PARA GUITARRA

PIANO UKELELE
B
G
A
F#


TOP 20: Las más tocadas de Samurai X


Toca una Canción al Azar de Samurai X

Acordes

Cerrar
B
G
A
F#

01.42

x

170