Delgada Sinfonía
Santos Inocentes
Acordes

Subida por orlando



Más Versiones de esta Canción | Ver. 2 | Ver. 3 |

Cambiar Cifrado
Americano Latino

Cambiar Tonalidad
-1 +1

Partir Pantalla Imprimir FAQ

+A
-A

LETRA Y ACORDES

Santos Inocentes-Delgada sinfonia 
Afinacion Drop D
1 E
2 B
3 G
4 D
5 A
6 D

|-----------------------------||
|-----------------------------||
|---66666-------4444444444----||
|---66666-22222-4444444444----||
|---44444-22222-2222222222----||
|---------22222---------------||
x4

|-----------------------||
|-----------------------||
|-----------------------||
|----66-6---66-7-6------||
|----66-----66----------||
|----66-----66----------||
x8

|----------------------------------------------------||
|----------------------------------------------------||
|--66666-88888---------------------------------------||
|--66666-88888-99999--66-6--66-7-6--66-6----66-7-6---||
|--44444-66666-99999--66----66------66------66-------||
|--------------99999--66----66------66------66-------||
x2


|-------------------||
|-------------------||
|-------------------||
|----66-6--66-7-6---||
|----66----66-------||
|----66----66-------||
x10


|------------------------------------------------------||
|------------------------------------------------------||
|---88888888-66666666----------------------------------||
|---88888888-66666666--66-6--66-7-6--66-6---66-7-6-----||
|---66666666-44444444--66----66------66-----66---------||
|----------------------66----66------66-----66---------||
x 4

solo de bajo...........................


|------------------||
|------------------||
|------------------||
|----66-6--66-7-6--||
|----66----66------||
|----66----66------||
x12

|------------------------------------------------------||
|------------------------------------------------------||
|---88888888-66666666----------------------------------||
|---88888888-66666666--66-6---66-7-6--66-6---66-7-6----||
|---66666666-44444444--66-----66------66-----66--------||
|----------------------66-----66------66-----66--------||
x 4

|-----------------------------------------------------||
|----------------------------------------------------||
|--66666-88888---------------------------------------||
|--66666-88888-99999--66-6--66-7-6--66-6----66-7-6---||
|--44444-66666-99999--66----66------66------66-------||
|--------------99999--66----66------66------66-------||
x2


|----------------------||
|----------------------||
|----------------------||
|----66-6--66-7-6------||
|----66----66----------||
|----66----66----------||
x6

|-----------------------------------------------------||
|-----------------------------------------------------||
|---88888888-66666666---------------------------------||
|---88888888-66666666--66-6--66-7-6--66-6---66-7-6----||
|---66666666-44444444--66----66------66-----66--------||
|----------------------66----66------66-----66--------||
x 4



|----------------------||
|----------------------||
|----------------------||
|----66-6--66-7-6------||
|----66----66----------||
|----66----66----------||
x hasta el final

Recuerda que #AcordesWeb.com se mantiene en línea gracias al aporte de nuestros anunciantes.

Toca una Canción al Azar de Santos Inocentes



ACORDES

PIANO UKELELE
E
B
G
D
A



COMENTARIOS

Aún no hay comentarios,

¡escribe el primero!

Escribe un comentario o pregunta sobre esta canción




Más canciones de Santos Inocentes

  • Megatón
  • Arco
  • Particulas
  • Hombre Montaña
  • Acople
  • Pornostar
  • Desaparecedor
  • Delgada Sinfonía
  • Siguiente

    E
    B
    G
    D
    A

    Nuestro servidor se demoró 0.27 segundos en generar esta página. Que velocidad!