Scarborough Fair
Sarah Brightman
Acordes

Subida por DULCE
Álbum: La Luna ( 2000)


Más Versiones
Ver. 2

Cambiar Cifrado
Americano Latino

Cambiar Tonalidad
-1 +1

Partir Pantalla Imprimir FAQ

+A
-A
Intro:
|----5-8-7---5-----5-8-7---5----5-8-7----5----0--------
|----------8-------------8------------8-------5--------
|-----------------------------0-----------------5--5---
|-0-------------0---------------------------3------2---
|------------------------------------------------------
|------------------------------------------------------

|----5-8-7---5-----5----------
|----------8---------5---5----
|--------------------------7--
|-0-------------0------0------ (2x)
|-----------------------------
|-----------------------------

Dm C Dm
Are you going to Scarborough Fair?
F Dm F G Dm
Parsley, sage, rosemary and thyme
Dm F F C/E Dm C
Remember me to one who lives there
Dm C Dm
He once was a true love of mine

Dm C Dm
Tell him to make me a cambric shirt
F Dm F G Dm
Parsley, sage, rosemary and thyme
Dm F F C/E Dm C
Without no seams nor needle work
Dm C Dm
Then he'll be a true love of mine

Dm C Dm
Tell him to find me an acre of land
F Dm F G Dm
Parsley, sage, rosemary and thyme
Dm F F C/E Dm C
Between salt water and the sea strands
Dm C Dm
Then he'll be a true love of mine

Dm C
Tell him to reap it with a sickle of leather
F Dm F G Dm
Parsley, sage, rosemary and thyme
Dm F F C/E Dm C
And gather it all in a bunch of heather
Dm C Dm
Then he'll be a true love of mine

Dm C Dm
Are you going to Scarborough Fair?
F Dm F G Dm
Parsley, sage, rosemary and thyme
Dm F F C/E Dm C
Remember me to one who lives there
Dm C Dm
He once was a true love of mine

ACORDES PARA GUITARRA

PIANO UKELELE
Dm
C
F
G
C/E


COMENTARIOS

Aún no hay comentarios,

¡escribe el primero!

Escribe una pregunta, duda o comentario sobre esta canción, te responderemos a la brevedad.

Las más tocadas de Sarah Brightman

Toca una Canción al Azar de Sarah Brightman
Dm
C
F
G
C/E