Nightmare (Acordes)

Sarcofago

Álbum: I.N.R.I. (1987)
Subida por Rosanema

Compartir


Imprimir FAQ
+A
-A

Texto

Desplazamiento

Transportador

Color de Fondo

Herramientas

TAMAÑO
TONALIDAD
+A
+ (F4)
-A
- (F2)
||---Riff-A-------------------|-----------------------||
||o---------------------------|----------------------o||
||----------------------------|-----------------------||
||----------------------------|--------------5---4----||
||o-------8-7----------2-3-7--|--------8-7---3---2---o||
||---0-00-------0-00----------|-0-00------------------||

||---Riff-B-----------------|--------------------------||
||o-------------------------|-------------------------o||
||--------------------------|--------------------------||
||--------------------------|--------------------------||
||o-------4---------4/5-4/8-|-------4---------8---7---o||
||---0000-2000-0000-2/3-2/6-|--0000-2000-0000-6---5----||

    1 2 3 4

|---Fill-I-----|
|--------------|
|--------------|
|--------------|
|--------------|
|---0----(0)---|

||---Riff-C---------------------------------||
||o----------------------------------------o||
||------------------------------------------||
||---9999-9999-9999-9999---8-8-8---7-7-7----||
||o--7777-7777-7777-7777---6-6-6---5-5-5---o||
||------------------------------------------||

||---Riff-D-----------------------------------------------------||
||o------------------------------------------------------------o||
||-------------------------------------------9-9-9-9-9-9-9-9----||
||--------10-7-9------7-9-9------10-7-9------7-7-7-7-7-7-7-7----||
||o-------8--5-7------5-7-7------8--5-7------------------------o||
||---0000--------0000-------0000--------0000--------------------||

||---Riff-E---------------------------------||
||o----------------------------------------o||
||------------------------------------------||
||------------------------------------------||
||o--9999-9999-9999-9999---8-8-8---7-7-7---o||
||---7777-7777-7777-7777---6-6-6---5-5-5----||

||---Riff-F------------------------------------------------||
||o-------------------------------------------------------o||
||---------------------------------------------------------||
||--------10-10-10------7-7-7------10-10-10-----555-444----||
||o-------8--8--8-------5-5-5------8--8--8------333-222---o||
||---0000----------0000-------0000---------0000------------||

|-Break-I-------------|---------------------|----------------------|
|---------------------|---------------------|----------------------|
|---------------------|---------------------|----------------------|
|-97/9/109/10987-|-97/9/109/10987-|-9/109/109/10987-|
|-75/7/8 7/8 765-|-75/7/8 7/8 765-|-7/8 7/8 7/8 765-|
|---------------------|---------------------|----------------------|

|----------------------|--------------------------|---------------------------|
|----------------------|--------------------------|---------------------------|
|----------------------|--------------------------|---------------------------|
|-9/109/109/10987-|-119/11/1211/1211109-|-11/1211/1211/1211109-|
|-7/8 7/8 7/8 765-|-9 7/9/ 109/ 109 8 7-|-9/ 109/ 109/ 109 8 7-|
|----------------------|--------------------------|---------------------------|

||---Solo--------------------------------||
||o-------------------------------------o||
||---------------------------------------||
||---9999-9999-12-12-12-12-10-10-10-10---||
||o--7777-7777-10-10-10-10-8--8--8--8---o||
||---------------------------------------||

|---Break-II-----------------------------------|
|----------------------------------------------|
|----------------------------------------------|
|----------------------------------------------|
|---7---9---7---5---2---(2)--------------------|
|---0---7---5---3---0---(0)---/18~-/20~-/22~---|

HERRAMIENTAS ACORDESWEB:


LETRA DE LA CANCIÓN:

Ver la letra sola (sin acordes)

DESCARGAR PDF / IMPRIMIR CANCIÓN



ACORDES PARA GUITARRA

PIANO UKELELE


TOP 20: Las más tocadas de Sarcofago