Vuelve (Acordes)

Satin Dolls

Subida por lis777

Compartir


Cambiar Cifrado
Americano Latino

Cambiar Tonalidad
-1 +1
Imprimir FAQ
+A
-A

Texto

Desplazamiento

Transportador

Color de Fondo

Archivos

TONALIDAD, TAMAÑO, CIFRADO, SCROL.

Nos renovamos: Ahora puedes cambiar TODO haciendo clic en ICONO de la Guitarra () que aparece en la parte inferior de esta página.


LETRA CON ACORDES

QUE TAL BANDA SALUDOS DESDE HUNUCMA:
   PUES AKI LES DEJO LA CANCION
 ESPERO QUE LES SIRVA

   INTRO:
E-------------------------------------------------------
B-11--11--11-9-8-6-8-6-8-6--------------8-9-8-9-8-9-8-6-
G---10--10-----------------10-8-10-8-10-----------------
D-------------------------------------------------------


E----------------------------------------------------
B-11--11--11-9-8-8-11-8--------------8-9-8-9-8-9-8-6-
G---10--10--------------10-8-10-8-10-----------------
D-----------------------------------------------------

  A#5         C#5                     fig.2
E------------------------     E----------------------------------
B-11--11--11-9-8-8-11-8--     B-------------7-7-5-5-7-7-6-6-5/12-
G---10--10---------------     G-----5-5-4-4---------------------- x2
D------------------------     D-3-3------------------------------


A#5 (PALMUTE)
AUNQUE NO KIERA ME IMAGINO TU PLACER


Y MIS TORMENTOS ME ENCARCELAN CON TEMOR

A#5        C#5                FIG.3
VUELVE ME AHOGO EN TU SILENCIO

A#5        D#5         FIG.4
DEJA QUE SUENEN TIMIDOS

A#5              C#5
YA NO QUEDA NADA TODO SE PERDIO ENTRE LOS DOS

 G#5
SOLO TE ESTOY BUSCANDO

  A#5
SOLO TE ESTOY SOÑANDO

 C5       C#5  FIG.5
UNA VEZ MAS EN MI

 G#5
SOLO TE ESTOY BUSCANDO

 A#5
SOLO TE ESTOY SOÑANDO

 C5     C#5             FIG.2
ALGO MURIO EN MI

A#5(PALMUTE)
DESDE QUE BRILLAS EN LOS SUENOS DE ALGUIEN MAS


DETESTO EL TIEMPO QUE NO PUEDE REGRESAR

A#5        C#5                FIG.3
VUELVE ME AHOGO EN TU SILENCIO

A#5        D#5         FIG.4
DEJA QUE SUENEN TIMIDOS

A#5                C#5
TODA LA ILUSION QUE TENGO SE QUEDO SIN LOS DOS

 G#5
SOLO TE ESTOY BUSCANDO

 A#5
SOLO TE ESTOY SOÑANDO

 C5      C#5   FIG.5
UNA VEZ MAS EN MI EN MI

 G#5
SOLO TE ESTOY BUSCANDO

 A#5
SOLO TE ESTOY SOÑANDO

 C5    C#5
ALGO MURIO EN MI

 G#5
SOLO TE ESTOY BUSCANDO

 A#5
SOLO TE ESTOY SOÑANDO

 C5      C#5 FIG.2
UNA VEZ MAS EN MI EN MI

 G#5
SOLO TE ESTOY BUSCANDO

 A#5
SOLO TE ESTOY SOÑANDO

 C5     C#5
ALGO MURIO

 A#5    C5
ALGO MURIO

 A#5    C5    C#5
ALGO MURIO EN MI


 BUENO BANDA PUES ESO ES TODO SOLO CHEKEN ESTE PEQUEÑO APUNTE:


        FIG.3
G---------------------------------
D-3-3-5-5-6-6-8-8-6-6-5-5-3-3-1---
A---------------------------------


        FIG.4
G---------------------------------
D-8-8-6-6-5-5-3-3-----------------
A-----------------6-6-4-4-3-3-1---
E---------------------------------


       FIG.5
E--------------
B-----------6--
G-------------- X3
D-4-4-4-4P3----
A--------------
E--------------



YO UTILIZO:


E----
B----
G-3--
D-3--  ESTE ES EL ACORDE QUE UTILIZO COMO A#5
A-1--
E----


Video Clip de Vuelve


ACORDES PARA GUITARRA

PIANO UKELELE
A#5
C#5
D#5
G#5
C5


TOP 20: Las más tocadas de Satin Dolls


Toca una Canción al Azar de Satin Dolls

Acordes

Cerrar
A#5
C#5
D#5
G#5
C5

13.25

x

77