Boig per tu (Acordes)

Sau

Subida por Ixoyeee

Compartir


Cambiar Cifrado
Americano Latino

Cambiar Tonalidad
-1 +1
Imprimir FAQ
+A
-A

Texto

Desplazamiento

Transportador

Color de Fondo

Archivos

TONALIDAD, TAMAÑO, CIFRADO, SCROL.

Nos renovamos: Ahora puedes cambiar TODO haciendo clic en ICONO de la Guitarra () que aparece en la parte inferior de esta página.


LETRA CON ACORDES

====================
= Sau: Boig per tu =
====================
Por Mauricio Santiago Galán ([email protected])




     F        Bb                    F        Bb
e||------5---------5-6-5----------------5---------5-6-5--------|
B||----6---6-----6-------6---6--------6---6-----6-------6---6--|
G||--5-------5-7-----------5--------5-------5-7-----------5----|
D||------------------------------------------------------------|
A||------------------------------------------------------------|
E||------------------------------------------------------------|

    F        Bb                    F        Bb
e|------5---------5-6-5----------------5---------5-6-5--------||
B|----6---6-----6-------6---6--------6---6-----6-------6---6--||
G|--5-------5-7-----------5--------5-------5-7-----------5----||
D|------------------------------------------------------------||
A|------------------------------------------------------------||
E|------------------------------------------------------------||

F              Bb
En la terra humida escric
F           Bb
nena estic boig per tu
Gm            Bb
em passo els dies
     G    F  C
esperant la nit.

F          Bb
Com et puc estimar
F           Bb
si de mi estàs tan lluny
Gm           Bb
servil i acabat
          F  Bb  F  Bb
boig per tu

C                    Dm
Sé molt bé que des d´aquest bar 
       Bb                 F
jo no puc arribar on ets tu
C                  Dm
però dins la meva copa veig 
      Bb            F
reflexada la teva llum
    C     Dm
me la beuré 
Gm           Bb
servil i acabat
          F  Bb  F  Bb
boig per tu

F              Bb
Quan no siguis al matí
F             Bb
les llàgrimes es perdran
Gm           Bb
entre la pluja
        G F C  F  Bb  F  Bb
que caurà avui.

F               Bb
Em quedaré atrapat
F          Bb
hebri d´aquesta llum
Gm           Bb
servil i acabat
          F  Bb  F  Bb
boig per tu.

C                    Dm
Sé molt bé que des d´aquest bar 
       Bb                 F
jo no puc arribar on ets tu
C                  Dm
però dins la meva copa veig 
      Bb            F
reflexada la teva llum
    C     Dm
me la beuré 
Gm           Bb
servil i acabat
          F  Bb  F  Bb
boig per tu
Gm           Bb
servil i acabat
          F  Bb  F  Bb
boig per tu

F  Bb  F  Bb  Gm  Bb  G  F  C


C                    Dm
Sé molt bé que des d´aquest bar 
       Bb                 F
jo no puc arribar on ets tu
C                  Dm
però dins la meva copa veig 
      Bb            F
reflexada la teva llum
    C     Dm
me la beuré 
Gm           Bb
servil i acabat
          F  Bb  F  Bb
boig per tu
Gm           Bb
servil i acabat
          F  Bb  F  Bb
boig per tu


Video Clip de Boig per tu


ACORDES PARA GUITARRA

PIANO UKELELE
F
Bb
Gm
G
C
Dm


TOP 20: Las más tocadas de Sau


Toca una Canción al Azar de Sau

Acordes

Cerrar
F
Bb
Gm
G
C
Dm

20.20

x

103