El reino de las hadas (Acordes)

Saurom

Subida por Hernando

Compartir


Cambiar Cifrado
Americano Latino

Cambiar Tonalidad
-1 +1
Imprimir FAQ
+A
-A

Texto

Desplazamiento

Transportador

Color de Fondo

Archivos

TONALIDAD, TAMAÑO, CIFRADO, SCROL.

Nos renovamos: Ahora puedes cambiar TODO haciendo clic en ICONO de la Guitarra () que aparece en la parte inferior de esta página.


LETRA CON ACORDES

INTRO KEYBORAD Dm
Dm     Bb
Adéntrate...En
    F        C
Un mundo nuevo

GUITARRA, KEYBOARD Y FLAUTA
  Dm                         Bb                   F
e|------------------------------------------------------------------------| |
B|-------6-5---------6-5---------6-5---------6-5---------6-5---------6-5--| |
G|-7---7-----7-7---7-----7-7---7-----7-7---7-----7-5---5-----7-5---5------| |
D|---7-----------7-----------8-----------8-----------7-----------7--------| |
A|------------------------------------------------------------------------| |
E|------------------------------------------------------------------------| |
                                                                            |X2
     C                                                                      |
e|--------------------------|                                               |
B|---------6-5---------6-5--|                                               |
G|-7-5---5-----7-5---5------|                                               |
D|-----5-----------5--------|                                               |
A|--------------------------|                                               |
E|--------------------------|                                               |


  Dm   Gm  Bb  Dm  Gm  F
e|--------------------------|
B|-----8-8-6-6-----8-8-6-6--|
G|-7-7---------7-7----------| X2
D|--------------------------|
A|--------------------------|
E|--------------------------|

VERSO 1:
Dm
Cerrando ya los ojos,
F
Mi cama está desnuda,
C                    Bb
Mi alma se desprende de un cuerpo sin luz.
Dm
El trance me apasiona,
F
Ahora mi mente flota,
C                     Bb
Y el viento me deriva a un
mar sideral.

Bb
Logro sentir tu fuego
Dm
Impulsa el deseo
Bb
Un gran canal me ayuda
F                   C
A alcanzar tu interior

CORO:
Dm       Bb
Puedo volar
En tu laberinto,
F         C
Puedo danzar
Con hermosas hadas,
Dm       Bb
Cerca de tí
Nacen las estrellas
F          C
Hoy descubrí
                Dm
Un reino más allá.

GUITARRA, KEYBOARD Y FLAUTA X1
  Dm                         Bb                   F
e|------------------------------------------------------------------------|
B|-------6-5---------6-5---------6-5---------6-5---------6-5---------6-5--|
G|-7---7-----7-7---7-----7-7---7-----7-7---7-----7-5---5-----7-5---5------|
D|---7-----------7-----------8-----------8-----------7-----------7--------|
A|------------------------------------------------------------------------|
E|------------------------------------------------------------------------|

     C
e|--------------------------|
B|---------6-5---------6-5--|
G|-7-5---5-----7-5---5------|
D|-----5-----------5--------|
A|--------------------------|
E|--------------------------|


Dm
Hoy vuelvo a ser el niño,
F
Nombrado caballero,
C
Que salva a su princesa,
Bb
Del dragón de un cuento.

F
Que surca las murallas
Dm
Eternas que cuidan
Bb
A LA villa encantada
F              C
De mi sueño astral

CORO:
Dm       Bb
Puedo volar
En tu laberinto,
F         C
Puedo danzar
Con hermosas hadas,
Dm       Bb
Cerca de tí
Nacen las estrellas
F          C
Hoy descubrí
                Dm
Un reino más allá.

GUITARRA Y KEYBOARD
  Dm                                    Gm            Am
e|----------------------------------------------------5-------|
B|------5-6-5-----------5-6-5-----------5-6-5---8-6-8---8-6---|
G|-7---7------7-5-7---7-------7-5-7---7-------7---------------| X2
D|---7--------------7---------------7-------------------------|
A|------------------------------------------------------------|
E|------------------------------------------------------------|

SOLO DE GUITARRA ELÉCTRICA
  Dm                      F    A       Dm
e|----------------------------------------------------------|
B|---6-5----------6-5---5-6~-8-6-5--------------------------|
G|-7-----7-5-7--------7------------7-6-7--------------------|
D|-------------7--------------------------------------------|
A|----------------------------------------------------------|
E|----------------------------------------------------------|
  Dm                      F    Bb
e|--------------------------------5-6-8-9~------------------|
B|---6-5----------6-5---5-6-5-6-8---------------------------|
G|-7-----7-5-7--------7-------------------------------------|
D|-------------7--------------------------------------------|
A|----------------------------------------------------------|
E|----------------------------------------------------------|

  Dm                           F             A         Bb
e|----------------------------------------------------------|
B|-------------------------------------------------6-5------|
G|-7-----------5-7-------------5-------------6---6-----7----|
D|---------5-7-----------5-7-8---------5-7-8---7------------|
A|---5-7-8---------5-7-8---------5-7-8----------------------|
E|----------------------------------------------------------|

 Bb                  F                  Dm
e|----------------5~-5-----------------------------------|
B|----6-5-6-8-6-8------8-6/8/6-5---5---------------------|
G|--7----------------------------7---7-5/7---------------|
D|-7-----------------------------------------------------|
A|-------------------------------------------------------|
E|-------------------------------------------------------|


CORO:
Dm       Bb
Puedo volar
En tu laberinto,
F         C
Puedo danzar
Con hermosas hadas,
Dm       Bb
Cerca de tí,
Nacen las estrellas,
F          C
Hoy descubrí,
                Dm
La magia que me das.
Dm        Bb
   OOOHHH   OOOHHH
F         C                   Dm
   OOOHHH   Un reino me embrujó,
Dm        Bb
   OOOHHH   OOOHHH
F         C                Dm
   OOOHHH  No quiero despertar.


CUALQUIER DUDA Y/O SUGERENCIA, ESCRÍBANME A: [email protected]


Video Clip de El reino de las hadas


ACORDES PARA GUITARRA

PIANO UKELELE
Dm
Bb
F
C
Gm
A
A
Am


TOP 20: Las más tocadas de Saurom


Toca una Canción al Azar de Saurom

Acordes

Cerrar
Dm
Bb
F
C
Gm
A
A
Am

10.45

x

96