Flores pintadas en lila (Acordes)

Saurom

Subida por laufer

Compartir


Imprimir FAQ
+A
-A

Texto

Desplazamiento

Transportador

Color de Fondo

Archivos

-A
+A
Estos son los acordes que lleva la canción

B13sus4   A13sus4   G13sus4

 E --7--  E --5--   E --3--
 B --9--  B --7--   B --5--
 G --9--  G --7--   G --5--
 D --7--  D --5--   D --3--
 A --7--  A --5--   A --3--
 E --7--  E --5--   E --3--


La Canción es simple solo basta con repetir la misma secuencia durante toda
la canción y asunto resuelto

 (Intro)

-3------3----2---------2-----0------------------------------------------------
------0------------0---------------3---0-----0--------5---------------5------3
----0-----------0-----------------------------------------------0-------------
-2-----------2---------------2-----2---2-----0------------0-------------------
------------------------------------------------------3----------------------3
------------------------------------------------------------------------------

-------------3----------------3------3-----2--------2--0-----------------------
----------5-----5--3--5---0--------0-------------0----------3---0--0---5------5
-----0---------------------------0------------0-----------------------------0--
0-----------------------------2------------2-----------2----2---2--0------0----
----------3--3--3--3--3---0--------------------------------------------3-------
-------------------------------------------------------------------------------

-------------3--------------3--------3--2-------2--3------3---2--p-3-----------
3--------5------5--3--5--0--------0----------0----------0----------------------
------0------------------------0-----------0----------0------------------------
---0------------------------2-----------2----------2----------2----------------
3--------3---3--3--3--3--0-----------------------------------------------------
-------------------------------------------------------------------------------


Vuelve a sentir nostalgia
ve en su pasado esa luz
recuerdos de niño, de vidas, de historias,
de risas, de cielo azul...

Fotos colgadas, sonrisas...
ojos sin luz ni calor
flores pintadas en lila,
negras en un jarrón

Sentada junto a su lecho
reza a un dios en las horas...
arropa un libro en su pecho
lee en alto, está a solas...

(en esta parte cambia a un rasgueo Agresivo)

B13sus4   A13sus4     G13sus4
No puedo  escuchar la brisa

B13sus4   A13sus4     G13sus4
mis ojos  no ven      el sol

B13sus4   A13sus4     G13sus4
mis manos no sienten  caricias

B13sus4   A13sus4     G13sus4
mi boca   no grita    dolor...

(Finalmente se remata con este simple arreglo)

 --3--
 -----
 -----
 --2--
 -----
 -----

ACORDES PARA GUITARRA

PIANO UKELELE
A13sus4
E
B
G
D
A


TOP 20: Las más tocadas de Saurom


Toca una Canción al Azar de Saurom

Acordes

Cerrar
A13sus4
E
B
G
D
A

16.25

x

88