K'anchito (Acordes)

Savia Andina

Subida por 65jcuuribe

Compartir


Imprimir FAQ
+A
-A

Texto

Desplazamiento

Transportador

Color de Fondo

Archivos

-A
+A
 
    
hola gente que tal esta cancion
es buena hee espero cometarios
[email protected]
vale:
RITMO: Huayno
TONO: Mim
INTRO:
1---0-----0---0---0-0-----
2-3-0-3-3-0-2-0-0-1-1-3-0-
3-4---4-4---2---0---------
4-------------------------
5-----------------3-3-2---
6-----------------------3-

1---0-----0---0------------
2-3-0-3-3-0-2-0-0--0-0-----
3-4---4-4---2---0--0-0-2-0-
4------------------------2-
5--------------------------
SOL              LA   SOL  DO   SOL 
Como quieren que no llore, palomitay
                  LA  SOL    SI7 MIm
Si en ella tuve un hijito  varoncito
SOL              LA     SOL  DO   SOL 
Cada vez que paso su puerta, palomitay
                  LA  SOL    SI7 MIm
Se me acerca el angelito  k'alanchito.

SOL              LA  SOL  DO  SOL 
Y me dice casi llorando  palomitay
                        LA  SOL    SI7 MIm
Quizás me lo has traído pancito, papacito

SOL              LA  SOL  DO  SOL 
Y me dice casi llorando  palomitay
                        LA  SOL    SI7 MIm
Quizás me lo has traído pancito, papacito
1-10-12-10-10-10-12-10-9-7-12-12-10----
2-----------------------------------12-
3--------------------------------------

1-10-12-10-10-10-12-10-9-7--7-12------
2--------------------------------10-8-

3--------
4--------
5---0-2--
6-3------...(BIS)

DO      SOL  SI7           MIm
¡Ay! palomitay maimanchu ripusaj
DO      SOL  SI7           MIm
¡Ay! palomitay maimanchu ripusaj
SOL 
Wañusaj chingasaj ¡carajo!
   LA  SOL    SI7  MIm
Mamita amawaqanquichu.

     SOL  LA    SOL 
Al pasar por tu puerta vidita
                  LA  SOL    SI7  MIm
Se me acerca el angelito k'alanchito
       SOL  LA   SOL 
Y me dice  papacito pancito
                 LA  SOL   SI7      MIm
Como no he de llorar yo si es mi hijito
     SOL  LA    SOL 
Al pasar por tu puerta vidita
                  LA  SOL    SI7  MIm
Se me acerca el angelito k'alanchito
       SOL  LA   SOL 
Y me dice  papacito pancito
                 LA  SOL   SI7      MIm
/Como no he de llorar yo si es mi hijito/.(BIS)

bueno eso es todo jajja bueno espero que la saken
 echenle ganas vale
pronto en videos tutoriales jajjaa...
bueno hsta pronto... cuidence y suerte!!!
    
 

Video Clip de K'anchito


ACORDES PARA GUITARRA

PIANO UKELELE
B7
Em


TOP 20: Las más tocadas de Savia Andina


Acordes

Cerrar
B7
Em

05.03

x

225