Wow I Can Get Sexual Too
Say Anything
Acordes

Subida por KAteKing
(Well, there's really only two parts to the song where you can play chords.
for the verses, i just play)
e|-----------|
B|-5-5-------|
G|-5-5-------|  (The keyboard part. Just do some random muted strumming when 
D|-5-3-------|  it's quiet.)
A|-----------|
E|-----------|

(Power chords sound better in this song)
Am - 5775
G - 3554
F - 1332
Em - 02200
C - x3555

[Chorus]
Am                                G       C
I called her on the phone and she touched herself.
F           C        F           G
She touched herself. She touched herself.
Am                                G       C
I called her on the phone and she touched herself.
  F       G         C
I laughed myself to sleep.

[Chorus Lead]
               ..she touched herself                 ..she touched herself
e|8---7---8---7---8---7---8---10---------8---7---8---7---8---7---8---12---7--|
B|--8---8---8---8---8---8---8----8---------8---8---8---8---8---8---8---8---8-|
G|---------------------------------------------------------------------------|
D|---------------------------------------------------------------------------|
A|---------------------------------------------------------------------------|
E|---------------------------------------------------------------------------|

                ..she touched herself       ..I laughed myself to sleep
e|8---7---8---7---8---7---8---10---------5---5---7---8-8/10-8--8---8---------|
B|--8---8---8---8---8---8---8----8--------8---8---8-----------8---8---8------|
G|---------------------------------------------------------------------------|
D|---------------------------------------------------------------------------|
A|---------------------------------------------------------------------------|
E|---------------------------------------------------------------------------|

[Verse 2]
(Bass and Guitar riff)
e|------------|
B|------------|
G|------------|
D|------------|
A|-----3---3--|
E|-3h5---5----|

e|------------|
B|------------|
G|------------|
D|------------|
A|-----3-5-3--|
E|-3h5--------|

[Bridge]
C                   Am
I don't know what I want.
Em                  G
I don't know what I want.
C                   Am
I don't know what I want.
Em                  G
I don't know what I want.
C                   Am
I don't know what I want. (Met you on the internet)
Em                  G
I don't know what I want. (Met you on the internet)
C                   Am
I don't know what I want. (Met you on the internet)
Em                  G
I don't know what I want. (Met you on the internet)

[Bridge Lead]
e|---------------------------------------------------------------|
B|8--8--10/13-12-10--8~--8-----8-10----10-8----------------------|
G|-9--9--------------------9--------9-------9--------------------|
D|---------------------------------------------------------------|
A|---------------------------------------------------------------|
E|---------------------------------------------------------------|



Cambiar Cifrado
Americano Latino

Cambiar Tonalidad
-1 +1

Partir Pantalla Imprimir FAQ

+A
-A

ACORDES PARA GUITARRA

PIANO UKELELE
Am
G
F
Em
C



COMENTARIOS

Aún no hay comentarios,

¡escribe el primero!

Escribe un comentario o pregunta sobre esta canción


TOP 20: Las más tocadas de Say Anything

Ver más

Toca una Canción al Azar de Say Anything
Am
G
F
Em
C

Nuestro servidor se demoró 0.02 segundos en generar esta página. Eso fue realmente muy rápido!