Send Me An Angel (acústico) (Acordes)

Scorpions

Subida por frankcruzado

Compartir


Cambiar Cifrado
Americano Latino

Cambiar Tonalidad
-1 +1
Imprimir FAQ

Para cambio de tonalidad, zoom, cambio de cifrado, haz clic en este botón


CONSEJO:

Afina tu guitarra antes de tocar. Prueba nuestro afinador en linea.

+A
-A

Texto

Desplazamiento

Transportador

Color de Fondo

Archivos

TONALIDAD, TAMAÑO, CIFRADO, SCROL.

Nos renovamos: Ahora puedes cambiar TODO haciendo clic en ICONO de la Guitarra () que aparece en la parte inferior de esta página.


LETRA CON ACORDES

Solo do Violão 2(Antes da Introdução)
E|---------------------------------------------------------
B|---------------------------------------------------------
G|---------------------------------------------------------
D|---------------------------------------------------------
A|---5----7-7-7-7-7---5A-5---7-7-7-7-7----------------------
E|---------------------------------------------------------

Dedilhado (Introdução e Melodia da Primeira Parte)
E|---0-------0-----------------------0-------0---------------------
B|-----0-------1-----3-------3---------0-------1-----------3-------
G|-------0-------0-----2-------2---------0-------0-----2-------2---
D|-2---------------------4-------4-2-----------------4---4---4---4-
A|---------3-------5-------2---------------3-------5---------------
E|-----------------------------------------------------------------
Tom: G

    Em      C          D        Bm  Em
The wise man said just walk this way
       C           D
To the dawn of the light
    Em       C     D        Bm  Em
The wind will blow into your face
       C              D
As the years pass you by
Em        C          D     Bm  Em
Hear this voice from deep inside
         C            D
It's the call of your heart
Em         C        D       Bm  Em
Close your eyes and you will find
        C              D    Em
the passage out of the dark

Dedilhado

Refrao
E|---------2----------------0-----------------------------------------
B|-----2-------2--------0-------0------------2-------------------------
G|---2---2---2---2----1---1---1---1------1--------1--------2-------4---
D|-4----------------2------------------2---2----2---2----4---4---6---6-
A|-----------------------------------4-----------------5-------7-------
E|---------------------------------------------------------------------

              D  Bm
Here I am
         C          D    Em
Will you send me an angel
       D  Bm
Here I am
       Em         C        D
In the land of the morning star



Repete o Dedilhado + Solo varias vezes ate subir o tom...


Solo do Violão 2
E|---------------------------------------------------------
B|---------------------------------------------------------
G|---------------------------------------------------------
D|---------------------------------------------------------
A|---5----7-7-7-7-7---5-5---7-7-7-7-7----------------------
E|---------------------------------------------------------

Dedilhado

E|---0-------0-----------------------0-------0---------------------
B|-----0-------1-----3-------3---------0-------1-----------3-------
G|-------0-------0-----2-------2---------0-------0-----2-------2---
D|-2---------------------4-------4-2-----------------4---4---4---4-
A|---------3-------5-------2---------------3-------5---------------
E|-----------------------------------------------------------------


Depois do refrao a segunda parte e tocada 1 tom acima

Solo do Violão 2
E|---------------------------------------------------------
B|---------------------------------------------------------
G|---------------------------------------------------------
D|---------------------------------------------------------
A|---7----9-9-9-9-9---7-7---9-9-9-9-9----------------------
E|---------------------------------------------------------

Dedilhado 2 Parte
E|---2-------2-----------------------2-------2---------------------
B|-----2-------3-----5-------5---------2-------3-----------5-------
G|-------2-------2-----4-------4---------2-------2-----4-------4---
D|-4---------------------6-------6-4-----------------6---6---6---6-
A|---------5-------7--------4-------------5-------7---------------
E|-----------------------------------------------------------------

    F#m      D         E         Dbm  F#m
The wise man said just find your place
       D          E
In the eye of the storm
F#m      D     E         Dbm F#m
Seek the roses along the way.
        D          E     F#m
Just beware of the thorns


Refrao da 2 Parte
E|---------4----------------2-----------------------------------------
B|-----4-------4--------2-------2------------4-------------------------
G|---4---4---4---4----3---3---3---3------3--------3--------4-------6---
D|-6----------------4------------------4---4----4---4----6---6---8---8-
A|-----------------------------------6-----------------7-------9-------
E|---------------------------------------------------------------------

        E  Dbm
Here I am
         D          E    F#m
Will you send me an angel
       E  Dbm
Here I am
       F#m         D        E
In the land of the morning star

Repete a primeira parte
Refrão 2x
Fim

Video Clip de Send Me An Angel (acústico)


ACORDES PARA GUITARRA

PIANO UKELELE
Em
C
D
Bm
F#m
E


TOP 20: Las más tocadas de Scorpions


Toca una Canción al Azar de Scorpions

Acordes

Cerrar
Em
C
D
Bm
F#m
E

21.13


162