Try Me

UFO

Acordes

Lights Out (1977)
Subida por Szemusic


Más Versiones
Ver. 2

Cambiar Cifrado
Americano Latino

Cambiar Tonalidad
-1 +1

Partir Pantalla Imprimir FAQ

+A
-A


Ver solo la LETRA
	  

verse 1:

Cm Bb
Tell me why we're never more than strangers

Cm Bb
Tell me why you never let it show

Abmaj7 Fm7
But when your close to me and wisper "I need you,"
Cm Bb Abmaj7
in the cold morning light.

tabchorus
Bb Eb
Try me,

Bb
oh, take me for a little while.

Cm
And befor it's over

Bb Abmaj7
and you leave me with just a smile,

Bb Eb
try me!

Bb
Oh let me be the one.

Cm Bb Abmaj7
You say it's over, but for me it has just begun. tab

verse 2:

Tell me why we seem no more than strangers.
Tell me why the feeling never goes.
But when your close to me and wisper "I need you,"
in the cold morning light.

Chorus:

hide this tabHide tabh = hammer on
/ = slide up
= slide down
^ = bend with size of bend above
~ = vibrato
p
( ) = pull off to fret

Solo: 1/2
E| --------------------|--------------------|-------------------|----------------------|
B|------6 / 8----------|------6/8-64-------|---4/6-------------|----------------------|
G|---------------------|--------------------|--------------5^---|----7-----------------|
D|---------------------|--------------------|-------------------|----------------------|
A|---------------------|--------------------|-------------------|----------------------|
E|---------------------|--------------------|-------------------|----------------------|
1/2 1/2
E| --------------------|--------------------|-------------------|----------------------|
B|--6 / 8------8^------|------6/8---64-----|--4/6--------------|----------------------|
G|---------------------|--------------------|-------------------|--------------3^------|
D|---------------------|--------------------|-------------------|----------------------|
A|---------------------|--------------------|-------------------|----------------------|
E|---------------------|--------------------|-------------------|----------------------|
1/2 then release
E| --------------------|--------------------|-------------------|----------------------|
B|-----------------4---|--------------------|-------------------|----------------------|
G|--5------------------|--5-----------------|--------------5--7-|7^~~~~------(5)-------|
D|---------------------|--------------------|---------/6--------|----------------------|
A|---------------------|--------------------|-------------------|----------------------|
E|---------------------|--------------------|-------------------|----------------------|
1/2 then release
E| --------------------|--------------------|-------------------|----------------------|
B|-----6 / 8----8^-----|-6----------6---8---|---4---------------|----4/6---------------|
G|---------------------|--------------------|-------------------|----5/7---------------|
D|---------------------|--------------------|-------------------|----------------------|
A|---------------------|--------------------|-------------------|----------------------|
E|---------------------|--------------------|-------------------|----------------------|

E| --------------------|----------------------------------|--------------------|--------------------|
B|-----6/8-------------|--8----9/11-----9---------8-------|---6----------------|-------------6---3--|
G|-----7/8---- --------|--8---10/12----10---------8-------|---7------------7---|--3----------7---3--|
D|---------------------|----------------------------------|----------------8---|--3-----------------|
A|---------------------|----------------------------------|---------------------|-------------------|
E|---------------------|----------------------------------|---------------------|-------------------|

E| --------------------|---------------------|-------------------------------|--------------------|
B|-----3/4-------------|---------------------|--4------6-----7/8------6-----4|---3----4--------4--|
G|-----4/5-------------|---------------------|--5------7-----7/8------7-----5|---3----5--------5--|
D|---------------------|---------------------|-------------------------------|--------------------|
A|---------------------|---------------------|-------------------------------|--------------------|
E|---------------------|---------------------|-------------------------------|--------------------|

E| --------------------|--------------------|--------------------------------|---------------------|
B|/6---------9--------|-8-------------------|-8---9---9/11------9-----8------|----6----------------|
G|/7--------10--------|-8-------------------|-8---10--10/12-----10----8------|----7-------------7--|
D|--------------------|---------------------|--------------------------------|------------------8--|
A|--------------------|---------------------|--------------------------------|---------------------|
E|--------------------|---------------------|--------------------------------|---------------------|

E| -------------------|-------------------|-------------------|----------------------|
B|------------6-3----|-3/4---------------|-3-----------------|-1--------------------|
G|-3----------7-3----|-4/5---------------|-3-----------------|-1--------------------|
D|-3------------------|-------------------|-------------------|----------------------|
A|--------------------|-------------------|-------------------|----------------------|
E|--------------------|-------------------|-------------------|----------------------|
Distortion!!!!!
E| --------------------||--------------------|-------------------|----------------------|
B|---------------------||--------------------|-------------------|----------------------|
G|---------------------||--------------------|-----------------5/|7---------------------|
D|---------------------||--------------------|-------------------|----------------------|
A|---------------------||--3-----------------|-----------------3/|5---------------------|
E|---------------------||--------------------|-------------------|----------------------|

E| --------------------|--------------------|-----------------------------|--------|
B|---------------------|--------------------|-----------------------------|--------|
G|---------------------|-8------------------|------10--/--12------10-----|----10--|
D|---------------------|--------------------|-----------------------------|--------|
A|---------------------|-6------------------|-------8--/---10------8-----|-----8--|
E|---------------------|--------------------|-----------------------------|--------|
Full Full Full~~~~~~~ F 1/2 F 1/2 F~~~~
E| ---------8-------8-|-------------------|-8--------------|11-----11----11----11-----11--|
B|--------8-------8---|--11^--------------|-11^------------|------------------------------|
G|---10^------10^-----|-------------------|-----------------|------------------------------|
D|--------------------|-------------------|-----------------|------------------------------|
A|--------------------|-------------------|-----------------|------------------------------|
E|--------------------|-------------------|-----------------|------------------------------|
Full Full
E| ---------------------------------|--------------------|-13-13---------11|---------------|
B|---18^-------16--18---------------|-16----------------|-----------------|-13^~~~~~~~~~--|
G|-----------------------------17~~~|--------------------|-----------------|---------------|
D|----------------------------------|--------------------|-----------------|---------------|
A|----------------------------------|--------------------|-----------------|---------------|
E|----------------------------------|--------------------|-----------------|---------------|
Full p Full
E| ------8----------------------------------------------|---------------------|
B|11^-----11(8)-----------------------------------------|---------------------|
G|-----------------10^-(8)----10-------8----------------|-8-------------------|
D|----------------------------------------10-------8--10|---10~~~~~~~~~~~~~--|
A|---------------------------------------------10-------|---------------------|
E|------------------------------------------------------|---------------------|
Full p Full p Full p
E| --------8---------------------8-------------------8--------|------|
B|-11^------11(8)----11^-------------11(8)---11^--------11(8)-|------|
G|------------------------------------------------------------|--10--|~~~~~~~
D|------------------------------------------------------------|------|
A|------------------------------------------------------------|------|
E|------------------------------------------------------------|------|
Full Full w/ Quick release Full slow rise
E| -------------------------------------------|-----------------------------------|
B|-18^--------18~~~~-------16---18------------|-16^--------------------------16^--|
G|--------------------------------------------|---------------17~~~~~~------------|
D|--------------------------------------------|-----------------------------------|
A|--------------------------------------------|-----------------------------------|
E|--------------------------------------------|-----------------------------------|
h
E| --------------10---11---13---11|---10-----------------------------------------|------|
B|-11/13--------------------------|----------11----------------------------------|------|
G|--------------------------------|-----------------10------8------7--8-------| --3--|
D|--------------------------------|----------------------------------------------|------|
A|--------------------------------|----------------------------------------------|------|
E|--------------------------------|----------------------------------------------|------|tab

NUEVO FORO DE MÚSICA

¿Tienes alguna duda, consulta, pregunta, consejo o algo para compartir sobre esta canción?

¡Puedes abrir un hilo en el FORO para que la comunidad te ayude! Hacer una pregunta

ACORDES PARA GUITARRA

PIANO UKELELE
Cm
Bb
Abmaj7
Fm7
Eb
F


Las más tocadas de UFO

Cm
Bb
Abmaj7
Fm7
Eb
F