Dios ha muerto (Acordes)

Shaila

Full Álbum: Mañanas (2004)
Subida por rambo2017

Compartir


Imprimir FAQ
+A
-A

Texto

Desplazamiento

Transportador

Color de Fondo

Archivos

-A
+A
Sebastian Lanciotti                 [email protected]

DIOS HA MUERTO. SHAILA.(MAÑANAS).


Esta es la base del verborrágico tema de SHAILA

G---------------------------------------------------------------------------------------
D---------------------------------------------------------------------------------------
A-------------------2323-------------------2h3-----------------2323---------------------
E----55-55--11-0-0-----------55-55-11-0-0--------55--55-11-0-0--------------------------


G---------------------------------------------------------------------------------------
D-------------------4h5-4h5-------------------------------------------------------------
A-------------------2h3-2h3-------------------------------------------------------------
E----55-55--11-0-0----------------------------------------------------------------------   



ahhhhhh, me olvidaba, se puede tocar tranquilamente con guitarra distorsionada (muy distorsionada),
cambiando las notas de la sexta cuerda (E), por acordes en quinta. Suena muy bien. suerte!!!!

Saludos a todos los que gustan de SHAiLA, MeNoStiL y WdK!!!!

HERRAMIENTAS ACORDESWEB:


LETRA DE LA CANCIÓN:

Ver la letra sola (sin acordes)

OTRAS VERSIONES DE LA MISMA CANCIÓN:

Ver. 2 Ver. 3

DESCARGAR PDF / IMPRIMIR CANCIÓN



ACORDES PARA GUITARRA

PIANO UKELELE


TOP 20: Las más tocadas de Shaila


Toca una Canción al Azar de Shaila

Acordes

Cerrar

07.28

x

100