Snake Eyes (Acordes)

Shawn James

Subida por lobo

Compartir


Imprimir FAQ
+A
-A

Texto

Desplazamiento

Transportador

Color de Fondo

Archivos

-A
+A
[Intro]

E|------------------------------------------|
B|------------------------------------------|
G|-------0-2/4/2p0--------0-----------------|
D|---0h2-----------2--0h2-------------------|
A|-0----------------------------------------|
E|------------------------------------------|

E|------------------------------------------|
B|------------------------------------------|
G|-------0-2/4/2p0--------------------------|
D|---0h2-----------2--0h2-------------------|
A|-0----------------------------------------|
E|------------------------3-----------------|

E|------------------------------------------|
B|------------------------------------------|
G|-------0-2/4/2p0--------0-----------------| (2x)
D|---0h2-----------2--0h2-------------------|
A|-0----------------------------------------|
E|------------------------------------------|

[Primeira Parte]

Watch your step lest you move on death
E|------------------------------------------|
B|------------------------------------------|
G|-------0-2/4/2p0--------0-----------------|
D|---0h2-----------2--0h2-------------------|
A|-0----------------------------------------|
E|------------------------------------------|

[Refrão]

Snake eyes always on my tail
E|------------------------------------------|
B|------------------------------------------|
G|-------0-2/4/2p0--------0-----------------|
D|---0h2-----------2--0h2-------------------|
A|-0----------------------------------------|
E|------------------------------------------|

[Segunda Parte]

E|------------------------------------------|
B|------------------------------------------|
G|----------0-2/4/2p0--------------0-2~--2~-| (2x)
D|------0h2-----------2--------0h2----------|
A|-0--0-------------------0--0--------------|
E|----------------------3-------------------|

Blow out your candles and face the gloom
E|------------------------------------------|
B|------------------------------------------|
G|----------0-2/4/2p0--------------0-2~--2~-|
D|------0h2-----------2--------0h2----------|
A|-0--0-------------------0--0--------------|
E|----------------------3-------------------|

[Refrão]

Snake eyes always on my tail
E|------------------------------------------|
B|------------------------------------------|
G|----------0-2/4/2p0--------------0-2~--2~-|
D|------0h2-----------2--------0h2----------|
A|-0--0-------------------0--0--------------|
E|----------------------3-------------------|

Snake eyes always up ahead
E|------------------------------------------|
B|------------------------------------------|
G|----------0-2/4/2p0-----------------------|
D|------0h2-----------2---------------------|
A|-0--0-------------------------------------|
E|----------------------3-------------------|

E|------------------------------------------|
B|------------------------------------------|
G|-------0-2/4/2p0--------0-----------------|
D|---0h2-----------2--0h2-------------------|
A|-0----------------------------------------|
E|------------------------------------------|

[Ponte]

E|------------------------------------------|
B|------------------------------------------|
G|----------0-2/4/2p0-----------------------|
D|------0h2-----------2---------------------|
A|-0--0-------------------------------------|
E|----------------------3-------------------|
                                              (2x)
E|------------------------------------------|
B|------------------------------------------|
G|-------0-2/4/2p0--------0-----------------|
D|---0h2-----------2--0h2-------------------|
A|-0----------------------------------------|
E|------------------------------------------|

[Refrão]

Snake eyes always on my tail
E|------------------------------------------|
B|------------------------------------------|
G|----------0-2/4/2p0-----------------------|
D|------0h2-----------2---------------------|
A|-0--0-------------------------------------|
E|----------------------3-------------------|

E|------------------------------------------|
B|------------------------------------------|
G|-------0-2/4/2p0--------0-----------------|
D|---0h2-----------2--0h2-------------------|
A|-0----------------------------------------|
E|------------------------------------------|

[Final]

E|------------------------------------------|
B|------------------------------------------|
G|----------0-2/4/2p0-----------------------|
D|------0h2-----------2---------------------|
A|-0--0-------------------------------------|
E|----------------------3-------------------|
                                              (2x)
E|------------------------------------------|
B|------------------------------------------|
G|-------0-2/4/2p0--------0-----------------|
D|---0h2-----------2--0h2-------------------|
A|-0----------------------------------------|
E|------------------------------------------|

HERRAMIENTAS ACORDESWEB:


LETRA DE LA CANCIÓN:

Ver la letra sola (sin acordes)

OTRAS VERSIONES DE LA MISMA CANCIÓN:

Ver. 2 Ver. 3 Ver. 4 Ver. 5 Ver. 6

DESCARGAR PDF / IMPRIMIR CANCIÓN



ACORDES PARA GUITARRA

PIANO UKELELE


TOP 20: Las más tocadas de Shawn James


Toca una Canción al Azar de Shawn James

Acordes

Cerrar

21.03


94