Thrill Me
Simply Red
Acordes

Subida por 1973charly
Álbum: Stars ( 1991)



Cambiar Cifrado
Americano Latino

Cambiar Tonalidad
-1 +1

Partir Pantalla Imprimir FAQ

+A
-A
Tuning: EADG

Key = C

Intro
G|--------------------------------------------------------------------------------|
D|--------------------------------------------------------------------------------|
A|--------------------------------------------------------------------------------|
E|---3/-----33-3----3/-----33-3------------slide-on E string to--3-3--------------|

Verse variation 1
G|--------------------------------------------------------------------------------|
D|--------------------------------------------------------------------------------|
A|-1-3----------------------------------------------------------------------------|
E|-----000111-3-3-----------------------------------------------------------------|

Verse variation 2
G|--------------------------------------------------------------------------------|
D|--------------------------------------------------------------------------------|
A|-1-3----------------------------------------------------------------------------|
E|-----000111-3/------------------------------------------------------------------|

Verse variation 3
G|--------------------------------------------------------------------------------|
D|--------------------------------------------------------------------------------|
A|-1-3------2---------------------------------------------------------------------|
E|-----00011--3/------------------------------------------------------------------|

Verse variation 4
G|--------------------------------------------------------------------------------|
D|--------------5-----------------------------------------------------------------|
A|-1-3----------------------------------------------------------------------------|
E|-----000111-3-------------------------------------------------------------------|


Verse variation 5/(6)
G|--------------------------------------------------------------------------------|
D|---------------5----------------------------------------------------------------|
A|-1-3----------------------------------------------------------------------------|
E|-----000112-3-(3)---------------------------------------------------------------|

Key change to D variations
G|--------------------------------------------------------------------------------|
D|-------------------------------------------------------7------------------------|
A|-----3-5------------------3-5--------------3-5----------------------------------|
E|5-5-----222333-5-5-----------222333-5/--------222333-5--------------------------|

Outro is a 'handful' of G's .Feel free to improvise on the outro and fill in some of the 'space'.

Really good 'groove' feel to the song
As ever,listen to the song for the structure and variations.Feel free to throw variations
of your in.

Enjoy !

LEGEND AND NOTES:
h: Hammer-on p: Pull-off b: Bend string up
r: Unbend string /: Slide up : Slide down
: Harmonics x: Muted string v: Vibrato
t: Tap

ACORDES PARA GUITARRA

PIANO UKELELE


COMENTARIOS

Aún no hay comentarios,

¡escribe el primero!

Escribe una pregunta, duda o comentario sobre esta canción, te responderemos a la brevedad.

Las más tocadas de Simply Red

Toca una Canción al Azar de Simply Red