Dan And Marie Final Theme (Acordes)

Sondre Lerche

Subida por 17301613

Compartir


Imprimir FAQ
+A
-A

Texto

Desplazamiento

Transportador

Color de Fondo

Archivos

-A
+A
-------------------------------------------------------------------------------

                 DAN AND MARIE FINAL THEME - Sondre Lerche
-------------------------------------------------------------------------------
Tabbed by: Jester Vae
Email: [email protected]

Tuning: standard

     Dm      Dm7     Dm6             Am      Asus2   Am      Am7
e|---1-1-1-1-1-1-1-0-1-1-1-1-1-1-1-1-0-0-0-0-0-0-0-0-0-0-0-0-0-0-0-0---------|
B|---3-3-3-3-1-1-1-0-0-0-0-0-0-0-0-0-1-1-1-1-0-0-0-0-1-1-1-1-1-1-1-1---------|
G|---2-2-2-2-2-2-2-2-2-2-2-2-2-2-2-2-2-2-2-2-2-2-2-2-2-2-2-2-0-0-0-0---------|
D|---0-0-0-0-0-0-0-0-0-0-0-0-0-0-0-0-2-2-2-2-2-2-2-2-2-2-2-2-2-2-2-2---------|
A|---x-x-x-x-x-x-x-x-x-x-x-x-x-x-x-x-0-0-0-0-0-0-0-0-0-0-0-0-0-0-0-0---------|
E|---x-x-x-x-x-x-x-x-x-x-x-x-x-x-x-x-x-x-x-x-x-x-x-x-x-x-x-x-x-x-x-x---------|

I know it looks confusing, but this is the whole song, repeated over and over. 

The change between the Dm7 and Dm6 has several names (Asus2/D, E7sus4), 
all of which were too long to fit comfortably in the space. 
That is also the only part of this song I'm not sure about, as the change
there is very subtle. But it sounds right when played against it.

HERRAMIENTAS ACORDESWEB:


LETRA DE LA CANCIÓN:

Ver la letra sola (sin acordes)

DESCARGAR PDF / IMPRIMIR CANCIÓN



ACORDES PARA GUITARRA

PIANO UKELELE
Dm
Dm7
Dm6
Am
Asus2
Am7


TOP 20: Las más tocadas de Sondre Lerche


Acordes

Cerrar
Dm
Dm7
Dm6
Am
Asus2
Am7

00.10

x

348