River (Acordes)

Split Lip Rayfield

Subida por Norge

Compartir


Imprimir FAQ
+A
-A

Texto

Desplazamiento

Transportador

Color de Fondo

Archivos

-A
+A
-------------------------------------------------------------------------------

                             River - Split Lip Rayfield
-------------------------------------------------------------------------------
Tabbed by:Lo-Fi Jeer Band
Email:myspace.com/howdoweknow

This song may have simple chords, but it involves some fast and furious right hand 
strumming. One of many excellent SLR songs. 
Written by Split Lip Rayfield et. al.
http://www.splitliprayfield.com/
Tuning:standard                         
Intro- Bm               Am      A#m      Bm
e|------2---------------0--------1--------2---------------------------------|
B|------3---------------1--------2--------3---------------------------------|
G|------4---------------2--------3--------4---------------------------------|
D|------4---------------2--------3--------4---------------------------------|
A|------2---------------0--------1--------2---------------------------------|
E|--------------------------------------------------------------------------|
The verse is just a D chord. It goes back and forth between the intro chords and 
different verses before the chorus.



Verse-  D             
e|------2--------------------------------------------------------------------|
B|------3--------------------------------------------------------------------|     
G|------2--------------------------------------------------------------------|
D|------0--------------------------------------------------------------------|
A|---------------------------------------------------------------------------|
E|---------------------------------------------------------------------------|
Chorus- G        D         C         D
e|------3--------2---------0---------2--------------------------------------|
B|------3--------3---------1---------3--------------------------------------|
G|------0--------2---------0---------2--------------------------------------|
D|------0--------0---------2---------0--------------------------------------|
A|------2------------------3------------------------------------------------|
E|------3-------------------------------------------------------------------|

Half time, break down part-  


e|---------------------------------------------------------------------------|
B|----------3-------------3-----------------3-----------------3--------------|
G|----------4-------------4-----------------4-----------------4--------------|
D|----------4-------------4-----------------4-----------------4--------------|
A|----0h2----------------------------0h2-------------------------------------|
E|----------------0h2---------------------------------0h2--------------------|

       Bm               Am      A#m      Bm   
e|------2---------------0--------1--------2----------------------------------|
B|------3---------------1--------2--------3----------------------------------|
G|------4---------------2--------3--------4----------------------------------|
D|------4---------------2--------3--------4----------------------------------|
A|------2---------------0--------1--------2----------------------------------|
E|---------------------------------------------------------------------------|



Cool riff they throw in before vocals start-                    

e|---------------------------------------------2-----------------------------|
B|---------------------------------------------3-----------------------------|
G|---------------------------------------------4-----------------------------|
D|---------------------------------------------4-----------------------------|   ~
A|----0h2-----5------7------5------0-----1-----2-----------------------------|
E|---------------------------------------------------------------------------|
 Towards the end there is some emphasis on-

e|---------------------------------------------------------------------------|
B|---------------------------------------------------------------------------|
G|---------------------------------------------------------------------------|
D|---------------------------------------------------------------------------|
A|----0h2-------------0h2----------------------------------------------------|
E|-----------0h2--------------0h2--------------------------------------------|




| /  slide up
| \  slide down
| h  hammer-on
| p  pull-off
| ~  vibrato
| +  harmonic
| x  Mute note
===============================================================================

Video Clip de River


ACORDES PARA GUITARRA

PIANO UKELELE
Bm
Am
A#m
D
G
C


TOP 20: Las más tocadas de Split Lip Rayfield


Acordes

Cerrar
Bm
Am
A#m
D
G
C

18.42

x

268