Disco Kid
Spunge
Acordes

Subida por Abels
Álbum: Room for Abuse (2000)



Cambiar Cifrado
Americano Latino

Cambiar Tonalidad
-1 +1

Partir Pantalla Imprimir FAQ

Ver solo la LETRA

+A
-A

LETRA Y ACORDES

Album: Room for abuse
Tabbed by: Skish

Intro(NOTE:11=11 NOT 1-1!)
G:-----79-11~~~----------------------|
D:---9------------------79-----9-1111-|
A:-9------------------7------9--------|x1
E:------------------7------9----------|

G:-----79-11-9---------------------------|
D:---9---------11-911-----79-----9-1111--|
A:-9--------------------7------9---------|x1
E:--------------------7------9-----------|

G:--------11~~~-------------------------|
D:-----11-----------------9~-------11~--|
A:-9~-------------------9-------11------|x2
E:-------------------7~------9~---------|
Verse 1
G:--------11~~~-----------------------|
D:-----11------------------------------|
A:-9999------------------9-------11----|x4
E:-------------------7777--7-9999---9--|
Chorus
G:-----------------------------------------------2-4-4-4-4-4-2------|
D:-----------------------------1-2-4-4-4-4-4-2-4---------------4-2--|
A:-2-2-2-2-2-2-2-2-2-2-2-2-2-4--------------------------------------|x1
E:------------------------------------------------------------------|

G:------------------| |-------------------| |-------------------| |-----11------------|
D:------------------| |-------------------| |-----11------------| |-------------------|
A:-99999-----------|x5|-9999119-----------|x1|-9999--9-----------|x1|-9999--9-----------|x1
E:-----------7-7----| |------------7-7----| |------------7-7----| |------------7-7----|

Verse 2
G:--------11~-------11-------------------|
D:-----11--------11----------------------|
A:-9999--------9-----------9-------11----|x4
E:---------------------7777--7-9999---9--|

Chorus 2
G:-----------------------------------------------2-4-4-4-4-4-2------|
D:-----------------------------1-2-4-4-4-4-4-2-4---------------4-2--|
A:-2-2-2-2-2-2-2-2-2-2-2-2-2-4--------------------------------------|x1
E:------------------------------------------------------------------|

G:------------------------------------------------------------------|
D:------------------------------------------------------------------|
A:-99999999--------99999999--------99999999-------------------------|x2
E:---------77777777--------99999999--------777777779999999999999999-|

Repeat:
Verse 2
Chorus 2

Solo
G:-------11~-------------------------|
D:-----9--------9--------------------|
A:-9999-------9---9-----7-------9----|x4
E:------------------7777--7-9999--9--|

Repeat:
Chorus 2

Outro
G:------------------------------------------------------------------|
D:------------------------------------------------------------------|
A:-9~~~--------4-/-9~~~---------------------------------------------|x1
E:-----------------------------9--2~~~---/7~~~---/9~~~----9---9----|

G:------------------------------------------------------------------|
D:------------------------------------------------------------------|
A:-99999999--------99999999--------99999999-------------------------|x2
E:---------77777777--------99999999--------777777779999999999999999-|

G:------------------------------------------|
D:------------------------------------------|
A:-9~~~~~~~~~~~~~~~----------------9~-------|x1
E:------------------------------------------|

Recuerda que #AcordesWeb.com se mantiene en línea gracias al aporte de nuestros anunciantes.

Toca una Canción al Azar de Spunge



ACORDES

PIANO UKELELE



COMENTARIOS

Aún no hay comentarios,

¡escribe el primero!

Escribe un comentario o pregunta sobre esta canción




Más canciones de Spunge

  • Jump On Demand
  • Skanking Song
  • Disco Kid
  • One More Go
  • Make Me Happy
  • Happy Hour
  • Whitehouse
  • Room For Abuse
  • Kiss My Face
  • Get Along
  • Second Rate
  • Dubstyle
  • Land Down Under
  • Live Another Day
  • Break Up
  • Change Of Scene
  • Wake Up Call
  • Go Away
  • No Woman No Cry
  • Roots
  • Siguiente


    Nuestro servidor se demoró 0.26 segundos en generar esta página. Que velocidad!