Go Away
Spunge
Acordes

Subida por jjjaavvvii
Álbum: Room for Abuse (2000)



Cambiar Cifrado
Americano Latino

Cambiar Tonalidad
-1 +1

Partir Pantalla Imprimir FAQ

Ver solo la LETRA

+A
-A

LETRA Y ACORDES

Album: Room For Abuse
Tabbed by: Skish

Intro(bass enters at 0:05)
G:----------------------------------|
D:----------------------------------|
A:-------------------------5~~~-----|x1
E:-5~~~----7~~~----3~~~-------------|

G:----------------------------------|
D:---------------------------4-5457-|
A:---4-5-7---6-7-9---2-3-5-5--------|x2
E:-5-------7-------3----------------|

Verse 1
G:----------------------------------|
D:---------------------------4-5457-|
A:---4-5-7---6-7-9---2-3-5-5--------|x6
E:-5-------7-------3----------------|

Chorus
G:-------------------------------------------------------------7~---|
D:-------------7~--------------6~--------------5~-------------------|
A:-------------------------------------------------5~~~-------------|x1
E:-5~~~------------4~~~------------3~~~-----------------------------|

G:------------------------------------------------------------------|
D:------------------------------------------------------------------|
A:-8~~~--------8~--7~~~--------7~--7-77-7777-77-7777-77-7777-77-777-|x1
E:------------------------------------------------------------------|

Solo
G:----------------------------------|
D:---------------------------4-5457-|
A:---4-5-7---6-7-9---2-3-5-5--------|x2
E:-5-------7-------3----------------|

Verse 2
G:----------------------------------|
D:---------------------------4-5457-|
A:---4-5-7---6-7-9---2-3-5-5--------|x4
E:-5-------7-------3----------------|

Repeat:
Chorus

Bridge
G:----------------------------------|
D:----------------------------------|
A:-------------------------5-54-42--|x4
E:-5-55-55-4-44-44-2-22-22----------|

G:----------------------------------|
D:------6-------4-------------------|
A:-7-7-7-7-5-5-5-5---4-5-7---4-5-7--|x2
E:-----------------5-------5--------|

G:------------------------------------------------------------------|
D:------6-------4-------6-------4-------6-------6----4---4---4---4--|
A:-7-7-7-7-5-5-5-5-7-7-7-7-5-5-5-5-7-7-7-7-7-7-7-7-7---7---7---7----|x1
E:------------------------------------------------------------------|

Outro
G:----------------------------------|
D:----------------------------------|
A:-------------------------5-54-42--|x4
E:-5-55-55-4-44-44-2-22-22----------|

G:----------------------------------|
D:----------------------------------|
A:---------5-7-5-4------------------|x1
E:-5~~~------------5~~~~~~~---------|

Recuerda que #AcordesWeb.com se mantiene en línea gracias al aporte de nuestros anunciantes.

Toca una Canción al Azar de Spunge



ACORDES

PIANO UKELELE



COMENTARIOS

Aún no hay comentarios,

¡escribe el primero!

Escribe un comentario o pregunta sobre esta canción




Más canciones de Spunge

  • Roots
  • Friend Called Fred
  • Circle In The Sand
  • All Gone Wrong
  • One More Go
  • Whitehouse
  • Second Rate
  • No Woman No Cry
  • Wake Up Call
  • Some Suck Some Rock
  • Live Another Day
  • Land Down Under
  • Go Away
  • Room For Abuse
  • Lyrical Content
  • Kiss My Face
  • Skanking Song
  • Jump On Demand
  • Get Along
  • Make Me Happy
  • Siguiente


    Nuestro servidor se demoró 0.26 segundos en generar esta página. Que velocidad!