Girl Problems (Acordes)

State of Alert

Subida por Anto

Compartir


Imprimir FAQ
+A
-A

Texto

Desplazamiento

Transportador

Color de Fondo

Archivos

-A
+A
State of Alert - Girl Problems Guitar Tab

by Trainwrek3.
Email: [email protected]

Intro / Verse:
E--------------------|
B--------------------|
G---55---------------|
D---55--33-77-55-----|
A---33--33-77-55-----|
E-------11-55-33-----| x6

Call her on the phone
Oh shit she isn't home
And you never know
That she ain't with someone else
You had better say the right thing
She might think you're a fool
You gotta lie through your teeth
To make her think you're cool

Chorus:
E--------------------|
B--------------------|
G---55-44-77-22------|
D---55-44-77-22------|
A---33-22-55-00------|
E--------------------| x4

I don't need no girl problems
I've got troubles as it is
I don't need to waist my time
I don't need more shit

Verse:
E--------------------|
B--------------------|
G---55---------------|
D---55--33-77-55-----|
A---33--33-77-55-----|
E-------11-55-33-----| x4

You lower your fucking pride
Cause you think she's what you need
You don't mind the pain
Or the way you always feel
It's just a fucking game
She's got you on a line
She'll throw your feelings through the wind
She's fucking with your mind

Chorus:
E--------------------|
B--------------------|
G---55-44-77-22------|
D---55-44-77-22------|
A---33-22-55-00------|
E--------------------| x3

I don't need no girl problems
I've got troubles as it is
I don't need to waist my time
I don't need more shit

Outro:
E--------------------|
B--------------------|
G---55-44-7777--2----|
D---55-44-7777--2----|
A---33-22-5555--0----|
E--------------------| x1

Video Clip de Girl Problems


ACORDES PARA GUITARRA

PIANO UKELELE


TOP 20: Las más tocadas de State of Alert


Acordes

Cerrar

05.08

x

77