Compartir


Cambiar Cifrado
Americano Latino

Cambiar Tonalidad
-1 +1
Imprimir FAQ
+A
-A

Texto

Desplazamiento

Transportador

Color de Fondo

Archivos

TONALIDAD, TAMAÑO, CIFRADO, SCROL.

Nos renovamos: Ahora puedes cambiar TODO haciendo clic en ICONO de la Guitarra () que aparece en la parte inferior de esta página.


LETRA CON ACORDES

Riff A:
  1ª vez
E|---5-0----|-------0-----------0---------------------------|
B|-------3--|-----3---3-------3---3--------3----------------|
G|----------|-2h4----------------------------0--------------|
D|-0--------|------------2h4----------4h5-------4p2p0-------|
A|----------|-----------------------------------------4p2p0-|
E|----------|-----------------------------------------------| (2x)
             Riff B:
 Outras vezes
E|-----0----|---5-3-2----------0-2------0-------------------|
B|-3-----3--|---------3------3------3-3---3-----------------|
G|---2------|-----------------------------------------------|
D|-0--------|---0-------------------------------------------|
A|----------|--------------2--------1-0---------------------|
E|----------|-----------------------------------------------|

E|-------------|
B|-------------|
G|---Riff------|
D|----A--------|
A|--(outra vez)|
E|-------------|

Riff C:
E|--5-3-2--------0--2/7--6--5-|---5-3-2----------0-2------0--|
B|--------3----3--------------|---------3------3------3-3---3|
G|----------------------------|------------------------------|
D|--0-------------------------|------------------------------|
A|-----------2-----------5--4-|---0---------2---------1-0----|
E|----------------------------|------------------------------|

E|-------------|
B|-------------|
G|---Riff------|
D|----A--------|
A|--(outra vez)|
E|-------------|

Riff A - 2:                     Riff C:
E|-----0---------0---------0--|--7--7--5--2---0--------------|
B|-3-----3-----3---3-----3---3|-----------------0------------|
G|---2-----2h4----------------|--7--7--6--2------------------|
D|-0-----------------2h4------|-------------0----------------|
A|----------------------------|------------------------------|
E|----------------------------|------------------------------|

(repete riff A - 2)
                  Riff D:
E|--------------|--2--0h2p0----0--2---2--|--------|----------|
B|--------------|-----------3---------3--|--------|----------|
G|---Riff-------|--2--0h2p0----0--2---4--|-Riff---|--Riff----|
D|-----A2-------|-----------4---------4--|---C----|----A2----|
A|--------------|---------------------2--|--------|----------|
E|--------------|------------------------|--------|----------|
                                       Bm (8x)
Riff E:
E|-2--0h2p0-----2--0h2p0---0-2------3--2-0h2p0--------3--2-0--|
B|-----------3-----------3----------5-----------------5-------|
G|-2--0h2p0-----2--0h0p2---0-2------4---------4-------4------4|
D|-----------4-----------4----------5-----------------5-------|
A|------------------------------------------------------------|
E|-------------------------------0---------------0-0----------|

E|-5------------------------|------|------|------|------|------|
B|-------2--3-----3--2---2--|-Riff-|-Riff-|-Riff-|-Riff-|-Riff-|
G|-----2--2-----2--2----2-2-|---C--|--A2--|---D*-|---C--|--A2--|
D|---2--------2--------2----|------|------|------|------|------|
A|-0--------0--------0------|------|------|------|------|------|
E|--------------------------|------|------|------|------|------|

               / Riff F:                 
E|------|-5---|--------------5-3-2h3p2-0-|----------------------|
B|-Riff-|-3---|-0------------0-0-0-----0-|----------------------|
G|---E--|-2---|-0-0-0-----0--0-----------|----------------------|
D|------|-2---|-7-5-4h5p4-0--------------|-7-5-4-5-7/9-9-9-7-5-4|
A|------|-2---|--------------------------|----------------------|
E|------|-----|--------------------------|----------------------|
         (4X)                        2x /
E|------|-------------------|------|------|
B|------|-------------------|------|------|
G|-Riff-|-------------------|-Riff-|-Riff-|
D|---A2-|-/9-7-5-7-4h5p4----|--A---|---B--|
A|------|-------------------|------|------|
E|------|-------------------|------|------|

Final:
E|-----0---------0---------0----------------------|-----------------|-2-|
B|-3-----3-----3---3-----3---3-----3--------------|--0--------------|-3-|
G|---2-----2h4-----------------------0------------|--0--------------|-2-|
D|-0-----------------2h4-------4h5-----4p2p0------|--5-5-4p2p0------|-0-|
A|-------------------------------------------4p2p0|------------4p2p0|---|
E|------------------------------------------------|-----------------|-2-|
                                                                  2x   D/F#

Video Clip de Masquerade


ACORDES PARA GUITARRA

PIANO UKELELE
Bm
D/F#


TOP 20: Las más tocadas de Steve Howe


Toca una Canción al Azar de Steve Howe

Acordes

Cerrar
Bm
D/F#

02.01

x

209