In My Dreams With You
Steve Vai
Acordes

Subida por 6005



Otras Versiones
Ver. 2
Imprimir FAQ

Ver solo la LETRA
+A
-A

Aquí puedes encontrar todas las herramientas necesarias para tocar esta canción.

LETRA CON ACORDES
Album: Sex and Religion



-|-----------------|------------------|-------------------------------|-------
-|-----------------|------------------|-------------------------------|-------
-|-----------------|------------------|-------------------------------|-------
-|-----------------|------------------|-------------------------------|-------
-|-----vx--xv------|--14v---12v----9--|-------------------------------|-------
-|-----------------|------------------|-------------------------------|-------
Gradual dive Gliss (Fim da intro)

-|--x-v------vx----|-xx--xx---------|----------------|----------------------
-|--x-v------------|-xx--xx---------|----------/16--|-16-------------------
-|-----------------|------------------|-7----/16-/16--|-16-------------------
-|-----------------|------------------|-7-------------|-x-v------------------
-|-----------------|------------------|---------------|----------------------
-|-----------------|------------------|----------------|----------------------
(PART1) Watching you Im wanting you,__ but you turn a-way,__ I,d

-|---------------------|--------------|-------------------|-------------------
-|---------------------|--------------|-------------------|-------------------
-|-4-------------------|-2------------|-6-----------62---|-------------------
-|-4-------------------|-2------------|-6-----------62---|-------------------
-|-4-------------------|-0------------|-4-----------4---|-------------------
-|---------------------|--------------|-------------------|-------------------
crawl through bro-ken glass__ for you, but it wouldn't pay,_ You

-|---------------------|--------------|-------------------|-------------------
-|---------------------|--------------|-------------------|-------------------
-|-4-------------------|-2------------|-6-----------62---|-------------------
-|-4-------------------|-2------------|-6-----------62---|-------------------
-|-2-------------------|-0------------|-4-----------4---|-------------------
-|---------------------|--------------|-------------------|-------------------
take me for a fool,_______________ but if you only knew____ what

-|------------------|---------------|-------------------|---------------------
-|------------------|---------------|-------------------|---------------------
-|-4----------------|-2-------------|-6------------62--|---------------------
-|-4----------------|-2-------------|-6------------62--|---------------------
-|-2----------------|-0-------------|-4------------4--|---------------------
-|------------------|---------------|-------------------|---------------------
I do______________ in my dreams with you

-|-----------------|-----------------|-----------------|----------------------
-|-----------------|-----------------|-----------------|----------------------
-|-4---------------|-2---------------|-6----------62--|----------------------
-|-4---------------|-2---------------|-6----------62--|----------------------
-|-2---------------|-0---------------|-4----------4--|----------------------
-|-----------------|-----------------|-----------------|----------------------
(Pre-refrão) You re so cold__ and crit-i-cal,___ and ba-by that's__

-|--------2-------------|--------------------|--------2-----------------------
-|--------2-------------|----2---------------|--------2-----------------------
-|-4---------4----------|----2-------4-------|-4---------4--------------------
-|-4---------------2----|--------2---2-------|-4------------------2-----------
-|-----------------0----|--------------------|--------------------2-----------
-|-4------------4-------|--------------------|-4-------------4----0-----------
____too____bad.________ So my___ re-al-i-ty will have to

-|-----0------------------|--------------2----------|-------------------------
-|-----0------------------|--------------2----------|----2--------------------
-|------------------------|--4--------------4-------|----2-----4--------------
-|--2---------2--2--------|--4--------------------2-|-------2--2--------------
-|--2---------0--0--------|-----------------------0-|-------------------------
-|--0------4--------4--0--|--4-----------------4----|-------------------------
come to me in my___ dreams._______________ And I (fim do pre-refrão)

-|------------------------|-----------------------|---------------------------
-|------------------------|-----------------------|---------------------------
-|------------4----------|-----------------------|---------------------------
-|------------2----------|-----------------------|---------------------------
-|-2-------------------4--|--4--4--4--4--4--4--4--|---------------------------
-|-0----0--0-----------2--|--2--2--2--2--2--2--2--|---------------------------
Refrão know that you belong to me._ Ev'ry night you sund-den-ly appear

----------------------0------------|---------------------|----------0---------
------------------------4----------|---------0--2--------|----5---4-----------
--------------------------4--------|-------2----2--------|------4------4------
---------4----------------------2--|--2--2---------------|----------------2---
---------2-------------------2--0--|--0------------------|-4--------------0---
-----------------------------------|---------------------|--------------------
in my eyes.___ It happens when I__sleep. It is-n't right what I

-----------------0--0---|---------0------------|------------------------------
---------0--2----0--0---|-----------4----------|---------0--2-----------------
------2-----2-----------|-------------4--------|------2-----2-----------------
---2--------------------|--4----------------2--|---2--------------------------
------------------------|--2-------------2--0--|------------------------------
------------------------|----------------------|------------------------------
do____________ in my dreams with you

-|--------------0--------|-------------------0---0----------------------------
-|-----5-----4-----------|------------0--2---0---0----------------------------
-|--------4--------4-----|---------2-----2------------------------------------
-|---------------------2-|---2--2---------------------------------------------
-|-4-------------------0-|---0------------------------------------------------
-|-----------------------|----------------------------------------------------


-|--------0--------------|-----------------|------------0---------------------
-|-----------4-----------|---------0---2---|------5---4---4-------------------
-|--------------4--------|------2------2---|--------4--------2----------------
-|-4------------------2--|---2-------------|-----------------0----------------
-|-2---------------2--0--|-----------------|---4------------------------------
-|-----------------------|-----------------|----------------------------------
It is-n't right what I do____________________

-|------------------0---0--|------0--------------|----------------------------
-|---------0---2----0---0--|---------4-----------|------------0---2-----------
-|------2------2-----------|------------4--------|---------2------2-----------
-|---2---------------------|--4----------------2-|--2---2---------------------
-|-------------------------|--2-------------2--0-|--0-------------------------
-|-------------------------|---------------------|----------------------------
in my dreams___ with you.________(na segunda vez, direto para o Solo)

-|---------------0--------|-------------------------||------------------------
-|------5-----4-----------|--------0--2-----0-------||------------------------
-|---------4--------4-----|-----2--------2----------||--4--4v-----------------
-|---------------------2--|--2----------------------||--4--4v-----------------
-|-4-------------------0--|-------------------------||------------------------
-|------------------------|-------------------------||--4--4v-----------------
(Toque denovo desde a parte 1 até a barra dupla (||)

-|-------------------|-------------------|------------------------------------
-|-------------------|-------------------|------------------------------------
-|---------------10--|--10v-------------|--xv-------------------------------
-|---------------10--|--10v-------------|--xv-------------------------------
-|-------------------|-------------------|------------------------------------
-|-------------------|-------------------|------------------------------------
SOLO Full Full Full Vibrato

-|-------------------|-------------------|------------------------------------
-|-----------22------|---22---22---22---|--10--------------------------------
-|-----------21b-----|---21---21---21---|---9b---r9-9b--r9--7-8--------------
-|-------------------|-------------------|-----------------------9v-9/16------
-|-------------------|-------------------|------------------------------------
-|-------------------|-------------------|------------------------------------
1 1/2 dive -2

-|-------------------------|-----/------22p-17----22p-17----------------------
-|-------------------------|----/21------------21--------21-------------------
-|-------------------------|--------------------------------------------------
-|---97--6----------------|--------------------------------------------------
-|-----------5-------------|--------------------------------------------------
-|--------------7b----r7v--|-0------------------------------------------------
1/2 1/2P.H. H.Full Full H.Full Full

-|--22p-17----22p-17----17---------------------------|------------------------
-|---------21--------21----21b-r21p-19-21b---21v--22-|--22b--22b--22b--22bv---
-|---------------------------------------------------|------------------------
-|---------------------------------------------------|------------------------
-|---------------------------------------------------|------------------------
-|---------------------------------------------------|------------------------
P.S. Ponte Baby,___ don't

-|-------------------------|-----------------0---------------|----------------
-|-------------------------|-----------------0---------------|----------------
-|--xv-----7---------------|---------------------------------|----------------
-|---------7---9---9-------|-4-------------------------------|----------------
-|-------------9---9-------|-2---------2-------------2-------|----------------
-|-------------------------|----------------------------0----|----------------
wake_ me Let me take__ you__ on an end-less jour - ney

-|----------0-----------|----------0-------------|-------0--------------------
-|----------0-----------|----------0-------------|-------0--------------------
-|--2-------------------|------------------------|----------------------------
-|--2-------------------|------------------------|-2--------------------------
-|----------------------|--2---------------------|-0--0-----------0-----------
-|--2----------0--2--0--|--0-----0-----0--4--0---|-------------4-----0--------
____ We touch___ and the soft-est kiss explodes

-|----------0------------|-----------------------|--------0-------------------
-|----------0------------|-------5---------------|--------0-------------------
-|--------------------4--|-------4-----86---4---|----------------------------
-|--4--------------------|-----------------------|----------------------------
-|--2---2-------0--2--4--|---4---------64---2---|-2--------------------------
-|-----------------------|-----------------------|-0---0-----0---4---0--------
____ with lust, yeah. It's real;___________

-|----------0------------|---------0-------------|----------------------------
-|----------0------------|---------0-------------|---------4------------------
-|-----------------------|--------------------4--|---------4------------------
-|-2---------------------|-4------------------4--|----------------------------
-|-0---0----------0------|-2---2-------2--0------|----------------------------
-|-------------4-----0---|--------------------4--|-----4-------4---2---0------
can't de-ny____ the heat___ you___ feel._______ And if I die_______

-|---------0---------------|-------0-------------|--------0-------------------
-|---------0---------------|-------0-------------|--------0-------------------
-|-------------------------|---------------------|------------------4---------
-|-----------------------2-|---------------------|-4--------------------------
-|--2--------------------0-|----0----------0-----|-2---2------0--2--4---------
-|--0---0---------0---4----|-------------4----0--|----------------------------
______________ be - fore I wake,_ baby thats all right. -let ring-

-|-----------------------|----------0------------|----------------------------
-|----------5------------|----------0------------|---------------2v-----------
-|--4-------4----86--4--|-----------------------|---------------2v-----------
-|-----------------------|-----------------------|-2-------------2v--2/4------
-|--4---4--------64--2--|-2---------------------|-0--------------------------
-|-----------------------|-0-----0------0--4--0--|----------------------------
let ring-------------> let ring------>

-|-0----------0----------|-----------------------|-0--------------------------
-|----2----------2-------|---------2-------------|----2-----------------------
-|-------4----------4----|---------2-------------|-------4--------------------
-|----------4----------4-|-2-------2----2/4------|----------4--2--2--2--2-----
-|-----------------------|-0---------------------|-------------0--0--0--0-----
-|-----------------------|-----------------------|----------------------------
Refrão : And I know that u belong

-|---------------0-------|-----------------------|------------0---------------
-|-------5----4----------|--------0--2-----0-----|--------------4-------------
-|----------4------4-----|-----2--------2--------|----------------4-----------
-|--------------------2--|--2--------------------|-4--------------------2-----
-|---4----------------0--|-----------------------|-2-----------------2--0-----
-|-----------------------|-----------------------|----------------------------
to me___________Ev-'ry night you suddenly appear___ in my eyes.___ It

-|-----------------------|--------------0--------|-----------------0--0-------
-|-----------0-----2-----|--------5---4----------|--------0--2-----0--0-------
-|--------2--------2-----|----------4-----4------|-----2-----2----------------
-|-2---2-----------------|-------------------2---|--2-------------------------
-|-0---------------------|-4-----------------0---|----------------------------
-|-----------------------|-----------------------|----------------------------
happens when___I sleep. It isn't right what I do____________

-|-------0---------------|-----------------------|-----------------0----------
-|----------4------------|---------0---2---------|--------5-----4-------------
-|-------------4---------|------2------2---------|-----------4--------4-------
-|-4-----------------2---|---2-------------------|-----------------------2----
-|-2--------------2--0---|-----------------------|--4--------------------0----
-|-----------------------|-----------------------|----------------------------
in my dreams___with you______

-|----------------0--0---|------0----------------|----------------------------
-|---------0--2---0--0---|---------4-------------|----------0----2------------
-|------2-----2----------|------------4----------|-------2-------2------------
-|-2-2-------------------|-4----------------2----|----2-----------------------
-|-0---------------------|-2-------------2--0----|----------------------------
-|-----------------------|-----------------------|----------------------------
It isn't right what I do__________________

-|--------------0--------|---------------0--0----|--------0-------------------
-|------5----4-----------|--------0--2---0--0----|------------4---------------
-|--------4--------4-----|-----2-----2-----------|----------------4-----------
-|--------------------2--|--2--------------------|--4-------------------2-----
-|--4-----------------0--|-----------------------|--2----------------2--0-----
-|-----------------------|-----------------------|----------------------------
Repete Refrão e FADE

-|-----------------------|--------------0--------|----------------------------
-|-----------0---2-------|-------5---4-----------|---------0--2-----0---------
-|--------2------2-------|---------4------4------|------2--------2------------
-|--2--2-----------------|-------------------2---|---2------------------------
-|--0--------------------|--4----------------0---|----------------------------
-|-----------------------|-----------------------|----------------------------



In My Dreams With You


I'm watchin' you, I'm wantin' you, but you turn away
I'd crawl through broken glass to you, but it wouldn't pay
You take me for a fool, but if you only knew
What I do in my dreams with you

You're so cold and critical, and baby that's too bad
So my reality will have to come to me in my dreams

Chorus:
I know that you belong to me every night, you suddenly appear in my eyes
It happens when I sleep, it isn't right, what I do in my dreams with you
It isn't right what I do in my dreams with you

I love the way you come to me every night
My fantasies are real, and they never lie
If you only knew, what I do in my dreams with you, yeah
It isn't right, Lord knows that it isn't right

The world can make you cynical, with all its love and pain
But I don't have to carry the weight of the world

(chorus)

(Solo)

Baby don't wake me, let me take you on an endless journey
We touch, and the softest kiss explodes with lust, yeah
It's real, you can't deny the heat you feel
And if I die before I wake, baby, that's all right

(chorus)

I know that you belong to me every night, you suddenly appear in my eyes
(repeats out...)

taniamangolin@terra.com.br

ACORDES PARA GUITARRA

PIANO UKELELE



COMENTARIOS

Aún no hay comentarios,

¡escribe el primero!

Escribe un comentario o pregunta sobre esta canción


TOP 20: Las más tocadas de Steve Vai

Ver más

Toca una Canción al Azar de Steve Vai

Nuestro servidor se demoró 0.11 segundos en generar esta página. Eso fue realmente muy rápido!