Tudo Ok (Acordes)

Stevens

Subida por Jodmarp

Compartir


Imprimir FAQ
+A
-A

Texto

Desplazamiento

Transportador

Color de Fondo

Archivos

-A
+A
Intro:
E|---------------------------
B|-0---1-0---1-0---1-0---1-0-
G|---0-----0-----0-----0-----
D|---------------------------
A|---------------------------
E|---------------------------


G Bm Em C
Iê, iê, iê, iê, iê, iê...

G       Bm       Em         C
Enquanto ela vai, a noite me distrai
G         Bm         Em           C
Nem tanto só pra mim, de que vale aquele sim

G             D/F# Em              D/F# C
Eu bem que te avisei, pra mim tá tudo OK,
              G      D
Agora vem com essa dizer que eu não sei (2x)
E|---------------------------
B|-0---1-0---1-0---1-0---1-0-
G|---0-----0-----0-----0-----
D|---------------------------
A|---------------------------
E|---------------------------


G         Bm     Em          C
De tanto só falar, já vi que tanto faz
G            Bm       Em           C
Tão perto, mais um fim, de que vale aquele sim

G             D/F# Em              D/F# C
Eu bem que te avisei, pra mim tá tudo OK,
              G      D
Agora vem com essa dizer que eu não sei (2x)

G Bm Em C
Iê, iê, iê, iê, iê, iê...
G Bm Em C          D  G
Iê, iê, iê, iê, iê, iêêêê...

Video Clip de Tudo Ok


ACORDES PARA GUITARRA

PIANO UKELELE
G
Bm
Em
C
D/F#
D


TOP 20: Las más tocadas de Stevens


Toca una Canción al Azar de Stevens

Acordes

Cerrar
G
Bm
Em
C
D/F#
D

23.10

x

99