Desalinhado (Acordes)

Tara Perdida

Subida por Sc128

Compartir


Imprimir FAQ
+A
-A

Texto

Desplazamiento

Transportador

Color de Fondo

Archivos

-A
+A
country. They have a melodic, fast sound with meaningful lyrics full of criticism and
thoughts on the world and on feelings such as friendship and brotherhood.


Tabs by Punkwolf

Since most of you who might search these tabs are portuguese, I'll just say in my mother
language que pode haver erros minimos nas tablaturas e que, por isso, agradecia que me
enviassem um email a comentar ou a sugerir correcções.

Intro (Guitar 1)
E|--------------------------------------------------|
B|--------6--6-6-8--9-8--9-8------------------------|
G|--8--8-8-------------8----8-----------------------|
D|------8-----8-------------------------------------|
A|--------------------------------------------------|
E|--------------------------------------------------|

Play whole 2 times (let ring last note on the second time)

Intro (Guitar 2)
E|---------------------------------------------------------|
B|---------------------------------------------------------|
G|--8-8-8-8-8-8--------------------------------------------|
D|--8-8-8-8-8-8-8-8-8-8-8-8-10-10-10-10-10-10-6-6-6-6-6-6--|
A|--6-6-6-6-6-6-8-8-8-8-8-8-10-10-10-10-10-10-6-6-6-6-6-6--|
E|--------------6-6-6-6-6-6--8--8--8--8--8--8-4-4-4-4-4-4--|
Play whole 4 times

Verse (Guitar 1)
E|---------------------------------------------------------------------|
B|---------------------------------------------------------------------|
G|--8*-----------------------------------------------------------------|
D|--8*----------------8-8-8-8-8-8-8-8-8-8-8-8-6-6-6-6-6-6-8-8-8-8-8-8--|
A|--6*----------------8-8-8-8-8-8-8-8-8-8-8-8-6-6-6-6-6-6-8-8-8-8-8-8--|
E|--------------------6-6-6-6-6-6-6-6-6-6-6-6-4-4-4-4-4-4-6-6-6-6-6-6--|
Play whole 2 times

Chorus - Part 1 (Both guitars)
E|-----------------------------------------------------------|
B|-----------------------------------------------------------|
G|--8-8-8-8-8-8-8--------------------------------------------|
D|--8-8-8-8-8-8-8-8-8-8-8-8-8-10-10-10-10-10-10-6-6-6-6-6-6--|
A|--6-6-6-6-6-6-6-8-8-8-8-8-8-10-10-10-10-10-10-6-6-6-6-6-6--|
E|----------------6-6-6-6-6-6--8--8--8--8--8--8-4-4-4-4-4-4--|
Play whole 2 times

Chorus - Part 2 (Both guitars)
E|------------------------------------------|
B|------------------------------------------|
G|------------------------------------------|
D|--10101010101010-8888888-6666666-8888888--|
A|--10101010101010-8888888-6666666-8888888--|
E|---8-8-8-8-8-8-8-6666666-4444444-6666666--|
Play whole 2 times in palm mute

Bridge - Part 1 (Guitar 1)
E|--------------------------------------------------|
B|--------------------------------------------------|
G|-----10-8--8-8-10-8-----10-8--13131313-12121212-8-|
D|--888-------8--------888--------------------------|
A|--------------------------------------------------|
E|--------------------------------------------------|

E|----------------------------------------------|
B|----------------------------------------------|
G|-8-8-10-8--8-1313-12-8-----10-8--13-13-12-12--|
D|--8---------------------888-------------------|
A|----------------------------------------------|
E|----------------------------------------------|
Play whole 2 times

Bridge - Part 1 (Guitar 2)
E|------------------------------|
B|------------------------------|
G|--8---------------------------|
D|--8-----8-----10-----6--------|
A|--6-----8-----10-----6--------|
E|--------6------8-----4--------|
Play whole 4 times (let ring each note)

Bridge - Part 2 (Both guitars)
E|----------------------------------------------|
B|----------------------------------------------|
G|--8-88-88-10-1010-1010-12-1212-1212-13-12-10--|
D|----------------------------------------------|
A|--6-66-66--8--8-8--8-8-10-1010-1010-11-10--8--|
E|----------------------------------------------|

E|-------------------------------------------------------------------|
B|-------------------------------------------------------------------|
G|--8-88-88-10-1010-1010-12-1212-1212-13-12-10-13-12-10-15-13-12-10--|
D|-------------------------------------------------------------------|
A|--6-66-66--8--8-8--8-8-10-1010-1010-11-10--8-11-10--8-13-11-10--8--|
E|-------------------------------------------------------------------|

Ending (Both guitars)
E|------------------------------------|
B|------------------------------------|
G|--8---------------------------------|
D|--8---------------------------------|
A|--6---------------------------------|
E|------------------------------------|
Let ring


Song structure:
Intro
Verse
Chorus - Part 1
Chorus - Part 2
Intro
Verse
Chorus - Part 1
Chorus - Part 2
Bridge - Part 1
Bridge - Part 2
Chorus - Part 1
Chorus - Part 1
Chorus - Part 2
Ending

Video Clip de Desalinhado


ACORDES PARA GUITARRA

PIANO UKELELE


TOP 20: Las más tocadas de Tara Perdida


Acordes

Cerrar

06.20

x

261