Midnight In Harlem
Tedeschi Trucks Band
Acordes

Subida por mapamar
Álbum: Revelator ( 2011)


Más Versiones
Ver. 2

Cambiar Cifrado
Americano Latino

Cambiar Tonalidad
-1 +1

Partir Pantalla Imprimir FAQ

+A
-A
Intro:
E E13 E7+ E E7+ E13 E E E13 E7+ E E7+ E
E|--0--0-------0----------0----------0-------0-------0---------0-----0-0-
B|-------0--2----2----2/4-----4/2----------0----0--2---2---2/4---4---5---
G|--1-------1-----------------------1----4---------------4---------------
D|-----------------------------------------------------------------------
A|-----------------------------------------------------------------------
E|-----------------------------------------------------------------------

E E13 E7+ E E7+ E A6 A7+ A6 A7+ A A7+ A
E|---------0-------0---------0-----0---2h4---2--2h4--5p4---2-------------
B|------0----0--2----2---2/4----4--5---2p2---2--2----2-----2-------------
G|----4----------------4---------------2-2---2--2-- -2-----2-------------
D|-----------------------------------------------------------------------
A|-----------------------------------------------------------------------
E|-----------------------------------------------------------------------

Arranjo 1:
E E13 E7+ E E7+ E A6 A7+ A6 A7+ A A7+ A
E|---------0-------0---------0-----0---2h4---2--2h4--5p4---2-------------
B|------0----0--2----2---2/4----4--5---2p2---2--2----2-----2-------------
G|----4----------------4---------------2-2---2--2-- -2-----2-------------
D|-----------------------------------------------------------------------
A|-----------------------------------------------------------------------
E|-----------------------------------------------------------------------

Arranjo 2:
A11 A
E|---------------------
B|-3-3-3-2-------------
G|-2-2-2-2-------------
D|-2-2-2-2-------------
A|-0-0-0-0-------------
E|---------------------

(Intro)

Verso:
(Arranjo 1 - 4x)
Well, I came to the city
I was running from the past
My heart was bleeding
And it hurt my bones to laugh
Stayed in the city
No exception to the rules, to the rule
He was born to love me
I was raised to be his fool, his fool

Refrão:
A (Arranjo 2)
Walk that line,
A (Arranjo 2)
torn apart
A A7+ G#m E
Spend your whole life trying
A (Arranjo 2)
Ride that train,
A (Arranjo 2)
free your heart
A A7+ G#m E
It's midnight up in Harlem

Solo: (Intro)

Verso:
(Arranjo 1 - 4x)
I went down to the river
And I took a look around
There were old man's shoes
There were needles on the ground
No more mysteries, baby
No more secrets, no more clues
The stars are out there
You can almost see the moon

Interlúdio:
A A7+
The streets are windy
C#m B A
And the subway's closing down
A7+
Gonna carry this dream
C#m B
To the other side of town.

Refrão:
A (Arranjo 2)
Walk that line,
A (Arranjo 2)
torn apart
A A7+ G#m E
Spend your whole life trying
A (Arranjo 2)
Ride that train,
A (Arranjo 2)
free your heart
A A7+ G#m E
It's midnight up in Harlem

Solo 2: (Intro) , (Arranjo 1 - 8x) E

ACORDES PARA GUITARRA

PIANO UKELELE
E
E13
E7+
A6
Amaj7
A
A11
G#m
C#m
B


COMENTARIOS

Aún no hay comentarios,

¡escribe el primero!

Escribe una pregunta, duda o comentario sobre esta canción, te responderemos a la brevedad.

Las más tocadas de Tedeschi Trucks Band

Toca una Canción al Azar de Tedeschi Trucks Band
E
E13
E7+
A6
Amaj7
A
A11
G#m
C#m
B