Murder In The City
The Avett Brothers
Acordes

Subida por Jimmy



Otras Versiones
Ver. 2

Cambiar Cifrado
Americano Latino

Cambiar Tonalidad
-1 +1

Partir Pantalla Imprimir FAQ

+A
-A

LETRA Y ACORDES

[Intro]

C  Cmaj7  C  Cmaj7  F


C Chord - Hit the bass string and follow with an upstroke, downstroke, upstroke rhythm

e|-----------------------------------|----------------------------------|
B|-----------------------------------|--0---/\/-------------------------|
G|-----------------------------------|----------------------------------|
D|-----------------------------------|----------------------------------|
A|--3---/\/--------------------------|----------------------------------|
E|-----------------------------------|----------------------------------|

 Hold the note for one extra beat      Open F Chord

e|-----------------------------------|----------------------------------|
B|-------------0~0-/\/---------------|------------------0---------------|
G|-----------------------------------|--2/\/----------------0-----2-----|
D|---2-/\----------------------------|-----------3/\--------------------|
A|-----------------------------------|----------------------------------|
E|-----------------------------------|----------------------------------|


[Verse 1]

C        C/B             C/A        C/G
If I get murdered in the city
F           G            C
Don’t go revengin' in my name
C        C/B             C/A        C/G
One person dead from such is plenty
F           G             C
No need to go get locked away

Am      G         C
When I leave your arms
Am             G         C
The things that I think of
Am         G         C
No need to get over alarmed
Am   G     C
I’m comin' home


[Instrumental]

C  Cmaj7  C  Cmaj7  F


[Verse 1]

C        C/B             C/A        C/G
I wonder which brother is better
F           G            C
Which one our parents love the most
C        C/B             C/A        C/G
I sure did get in lots of trouble
F              G            C
They seemed to let the other go

Am      G                    C
A tear fell from my father’s eyes
Am         G                 C
I wondered what my dad would say
Am        G
He said I love you
        F            C                G          C
And I’m proud of you both, in so many different ways


[Instrumental]

C  Cmaj7  C  Cmaj7  F


[Verse 2]

C        C/B             C/A        C/G
If I get murdered in the city
F              G            C
Go read the letter in my desk
C        C/B             C/A        C/G
Don’t bother with all my belongings
F              G            C
But pay attention to the list

Am         G                 C
Make sure my sister knows I loved her
Am         G                 C
Make sure my mother knows the same
Am       G                  F           C
Always remember, there was nothing worth sharing
         C                G         C
Like the love that let us share our name
Am       G                  F           C
Always remember, there was nothing worth sharing
         C                G         C
Like the love that let us share our name


**********************

|/  upstroke
|\  downstroke 

**********************

ACORDES PARA GUITARRA

PIANO UKELELE
C
Cmaj7
F
C/B
C/A
C/G
G
Am



COMENTARIOS

Aún no hay comentarios,

¡escribe el primero!

Escribe un comentario o pregunta sobre esta canción


Toca una Canción al Azar de The Avett Brothers
Más canciones de The Avett Brothers

  • It Goes On And On
  • Vanity
  • Old Wyom
  • Tear Down The House
  • Backwards With Time
  • Winter In My Heart
  • Letter To A Pretty Girl
  • Down With A Glistening Shine
  • Will You Return
  • Colorshow
  • Skin And Bones
  • Salina
  • The Bloody Apology
  • Pretty Girl From Chile
  • Weight Of Lies
  • Pretend Love
  • Down With The Shine
  • When I Drink
  • Murder In The City
  • I And Love And You
  • Ver todas las canciones de The Avett Brothers

    C
    Cmaj7
    F
    C/B
    C/A
    C/G
    G
    Am

    Te puede interesar...



    Nuestro servidor se demoró 0.31 segundos en generar esta página. Que velocidad!