My Baby Dont

The Black Rabbits

Acordes

Subida por joujim



Cambiar Cifrado
Americano Latino

Cambiar Tonalidad
-1 +1

Partir Pantalla Imprimir FAQ

+A
-A
--------------------------------------------------------------------------

             My Baby Don't - The Black Rabbits
--------------------------------------------------------------------------
Tabbed by:Julski10
 
fairly simple song. This is how I play it... just saying

Tuning: Standard 

INTRO AND VERSE

e|-----------------------------------|
B|-----------------------------------|
G|-----------------------------------|
D|---7p----5---5b---5/7-7------------|
A|-0----3b---3----3------------------|
E|-----------------------------------|

Play for the verses^^
 
VERSE 1

Late at night I hit the floor 
Then I head out the door 
When you stare me in the eyes 
Stars fall from the sky 
You can try and put them back 
But they will never stay like that 
Show me how to fix it all 
Show me how to catch the stars 



********CHORUS**********

e|---------------------------------------------------|
B|---------------------------------------------------|
G|-------------------5-5--5--------------------------| X4
D|-7-7--7---5-5--5---5-5--5---7-7--7-----------------|
A|-7-7--7---5-5--5---3-3--3---7-7--7-----------------|
E|-5-5--5---3-3--3------------5-5--5-----------------|

My baby don't walk to me
My baby was killed by the sea
My baby's got nothing for you
My baby fell in love with you 


VERSE 2
People cry and then they die 
Leaving everything behind 
Walk the lonely streets at night 
Lock you kids up safe tonight 


******CHORUS*******
 
My baby don't walk to me
My baby was killed by the sea
My baby's got nothing for you
My baby fell in love with you 



Ooooooh, Oooooh 
Ooooooh, Oooooh 



My baby don't walk to me
My baby was killed by the sea
My baby's got nothing for you 
My baby fell in love with you 


My baby don't walk to me 
My baby don't walk to me 
My baby don't walk to me
My baby don't walk to me

************************************

| /   slide up
| \   slide down
| H   hammer-on
| p   pull-off
| ~   vibrato
| +   harmonic
| x   Mute note
| B   Bend
| pb  Pre-bend
| br  Bend release
| pbr Pre-bend release
| brb Bend release bend

************************************

NUEVO FORO DE MÚSICA

¿Tienes alguna duda, consulta, pregunta, consejo o algo para compartir sobre esta canción?

¡Puedes abrir un hilo en el FORO para que la comunidad te ayude! Hacer una pregunta

ACORDES PARA GUITARRA

PIANO UKELELE


Las más tocadas de The Black Rabbits