The Beijing Cocktail (Acordes)

The Blackout

Full Álbum: We Are the Dynamite! (2007)
Subida por Ivan

Compartir


Cambiar Cifrado
Americano Latino

Cambiar Tonalidad
-1 +1
Imprimir FAQ
+A
-A

Texto

Desplazamiento

Transportador

Color de Fondo

Archivos

TONALIDAD, TAMAÑO, CIFRADO, SCROL.

Nos renovamos: Ahora puedes cambiar TODO haciendo clic en ICONO de la Guitarra () que aparece en la parte inferior de esta página.


LETRA CON ACORDES

intro
---------------------------------------------------------------------|
---------------------------------------------------------------------|
---------------------------------------------------------------------|
--------------0002---------------0002---------------0002x55557777----|
2-5-2-0-2-2-0-0002-2-5-2-0-2-2-0-0002-2-5-2-0-2-2-0-0002x55557777----|x2
--------------0002---------------0002---------------0002x55557777----|
verse
--------------------------------------------------------------------|
--------------------------------------------------------------------|
-------7-9--------7-9-------7-9-------------------------------------|
-------7-9--------7-9-------7-9-x2-1st time:55557777-2nd:0000-22-22-|
-2-5-2-5-7--2-5-2-5-7-2-5-2-5-7-------------55557777-----0000-22-22-|
--------------------------------------------55557777-----0000-22-22-|
pre chorus
--------------------------------------------------------------------|
--------------------------------------------------------------------|
12------16----14-----12-----14----15--------------------------------|
-x-x14---x-x6--x-x6---x-x14--x-x8--x-x8-----------------------------|
10------14----12-----10-----12----13--------------------------------|
--------------------------------------------------------------------|
the number of times u play these r guesses
chorus
--------------------------------------------------------------------|
--------------------------------------------------------------------|
-4-----2------------------------------------------------------------|
-4-0-5-2------------------------------------------------------------|
-2-0-5-0-x2---------------------------------------------------------|
---0-5--------------------------------------------------------------|
work out timing
heavy bit
--------------------------------------------|
--------------------------------------------|
--------------------------------------------|
---------------0002---------------0002------|
-2-5-2-0-2-2-0-0002-2-5-2-0-2-2-0-0002------|
---------------0002---------------0002------|
                                  ***
------------------------------------|
------------------------------------|
------------------------------------|
---------------00002----------------|
-2-5-2-0-2-2-0-00002-x8-------------|
---------------00002----------------|
               ****
end
------------------------------------|
------------------------------------|
------------------------------------|
------------------------------------|
-2-5-2-0-2--------------------------|
------------------------------------|

song order:
intro
verse
pre chorus
chorus
intro
verse
pre chorus
chorus
solo bit
intro
heavy bit
chorusx2
end

i worked out the solo bit but cba 2 tab it,if u have that tab email me on 
n i will add it in

Video Clip de The Beijing Cocktail


ACORDES PARA GUITARRA

PIANO UKELELE


TOP 20: Las más tocadas de The Blackout


Acordes

Cerrar

01.16

x

240