You Might Think (Acordes)

The Cars

Full Álbum: Heartbeat City (1984)
Subida por OnesLopez

Compartir


Imprimir FAQ
+A
-A

Texto

Desplazamiento

Transportador

Color de Fondo

Archivos

-A
+A
------------------------------------------|
Tabbed by: Rhythm Hippy
email: *
Tuning: Standard (EADGBe)


Guitar I (repeat throughout song)
e|-------------------------------------------------------|
B|-------------------------------------------------------|
G|-------------------------------------------------------|
D|-12-12-12-12-12-12-12-12-7-7-7-7-7-7-7/-9-9-9-9-9-9-9-|
A|-12-12-12-12-12-12-12-12-7-7-7-7-7-7-7/-9-9-9-9-9-9-9-|
E|-10-10-10-10-10-10-10-10-5-5-5-5-5-5-5/-7-7-7-7-7-7-7-|
    .  .  .  .  .  .  .  .  . . . . . . .  . . . . . . .
e|------------------|
B|------------------|
G|------------------|
D|-5-5-5-5-5-5-5/--|
A|-5-5-5-5-5-5-5/--|
E|-3-3-3-3-3-3-3/--|
    . . . . . . .

Guitar II (heavy distortion)
e|-----------------------------------------------------|
B|-----------------------------------------------------|
G|-5-5-5-7-5--5-5-5-7-5--7-7-7-9-7--5-5-5-7-5-4-5------|
D|-5-5-5-7-5--5-5-5-7-5--7-7-7-9-7--5-5-5-7-5-4-5------|
A|-----------------------------------------------------|
E|-----------------------------------------------------|
                                   (-----x3------------|
 /  slide up
   slide down
 .  palm mute


thats all i got so far- the chorus is the first part, guitar I. i'll get the solo and 
that was thrown in there later. peace out and rock on.

Video Clip de You Might Think


ACORDES PARA GUITARRA

PIANO UKELELE


TOP 20: Las más tocadas de The Cars


Toca una Canción al Azar de The Cars

Acordes

Cerrar

01.07

x

121