Dancing On Our Graves
The Cave Singers
Acordes

Subida por Papos



HERRAMIENTAS

Cambiar Cifrado
Americano Latino

Cambiar Tonalidad
-1 +1

Partir Pantalla Imprimir FAQ

+A
-A
LETRA CON ACORDES

¿Tu Guitarra esta Afinada? PRUEBA NUESTRO NUEVO AFINADOR

e-----------------------|   X2

B---------3p0-----------|
G----3-0------3-0-0-----|
D-----------------------|
A-----------------------|
E---3-------------------|

e--------------------|
B--------------------|
G--------------------|
D-------3-----3------|
A---3h5---3h5---5-5--|
E--------------------|

Sorry I couldn't be more helpful.////////////////// ¿Te Animas? Sube una canción a este sitio. //////////////////

ACORDES PARA GUITARRA

PIANO UKELELE


COMENTARIOS

Aún no hay comentarios,

¡escribe el primero!

Escribe una pregunta, duda o comentario sobre esta canción, te responderemos a la brevedad.

Las canciones más tocadas de The Cave Singers

Toca una Canción al Azar de The Cave Singers

16.47


Nuestro servidor se demoró 0.01 segundos en generar esta página. Eso fue realmente muy rápido!