Prety (Acordes)

The Cranberries

Subida por Carlos

Compartir


Imprimir FAQ
+A
-A

Texto

Desplazamiento

Transportador

Color de Fondo

Archivos

-A
+A
(intro 2x - opcional)

G|--------------------------------
D|15-----12-----------------------
A|-----------13-----11------------
E|--------------------------------

(base da música inteira - pode-se variar nas oitavas)
G|--------------------------------------------------------------------------
D|---------------------------------------------------------------------5-0--
A|-5--0----3------7--0----5------5--0-----3------7--0-----5-----------------
E|--------------------------------------------------------------------------

Video Clip de Prety


ACORDES PARA GUITARRA

PIANO UKELELE


TOP 20: Las más tocadas de The Cranberries


Acordes

Cerrar

01.22

x

76