c ▷ THEM: (The Cranberries) Acordes para Guitarra, Piano & Ukelele

Them (Acordes)

The Cranberries

Subida por cantalicio

Compartir


Imprimir FAQ
+A
-A

Texto

Desplazamiento

Transportador

Color de Fondo

Archivos

-A
+A
Dedilhado base:

          Bm                Bm                D                 D
e|-------2-2-------|--------2-2------|-------2-2-------|-------2-2-------
B|-----3-----3-----|-----3-----3-----|-----3-----3-----|-----3-----3-----
G|---4---------4---|---4---------4---|---2---------2---|---2---------2---
D|-----------------|-----------------|-0-------------0-|-0-------------0-
A|-2-------------2-|-2-------------2-|-----------------|-----------------
E|-----------------|-----------------|-----------------|-----------------

          G2                G2                D                 D
e|-------5-5-------|-------5-5-------|-------2-2-------|-------2-2-------
B|-----0-----0-----|-----0-----0-----|-----3-----3-----|-----3-----3-----
G|---0---------0---|---0---------0---|---2---------2---|---2---------2---
D|-----------------|-----------------|-0-------------0-|-0-------------0-
A|-----------------|-----------------|-----------------|-----------------
E|-3-------------3-|-3-------------3-|-----------------|-----------------


Quando vai pra A eu mudo o dedilhado, e antes disso eu mudo o D final acima,
mas tem que ouvir a música melhor...

Something...

         D                  D 
e|-------2-2-------|-------2-----0---
B|-----3-----3-----|-----3---2-------|
G|---2---------2---|---2-------2-----
D|-0-------------0-|-0---------------
A|-----------------|-----------------
E|-----------------|-----------------


Oh that attitude, they all got that attitude...

         A                 A                  A                 A         
|-------0-0-------|-------0-----0---|-------0-0-------|-------0---------|
|-----2-----2-----|-----2---2-----2-|-----2-----2-----|-----2-----2-----|
|---2---------2---|---2-------2-----|---2---------2---|---2---------2---|
|-----------------|-----------------|-----------------|-----------------|
|-0-------------0-|-0---------------|-0-------------0-|-0---------------|
|-----------------|-----------------|-----------------|-----------------|

         A                 A                  A                 A         
|-------0-0-------|-------0-----0---|-------0-0-------|-0-------0-------|
|-----2-----2-----|-----2---2-----2-|-----2-----2-----|-2-------2-------|
|---2---------2---|---2-------2-----|---2---------2---|-2-------2-------|
|-----------------|-----------------|-----------------|-----------------|
|-0-------------0-|-0---------------|-0-------------0-|-0-------0-------|
|-----------------|-----------------|-----------------|-----------------|


Intro: Bm D G2 D 

Bm                        D
Don't listen to what they say,
             G2          D 
Make up your mind, walk away,
Bm                                  D
Oh don't even give them the time of day,
             G2           D   
They put you wrong, turn away.

Bm                           D
So why'd they all just walk away,
                    G2 
There was something wrong,
                      D
But you don't want to say.
   Bm                             D
Oh why did they listen to someone else,
                G2
I did something wrong,
             D  A
Something...  

Oh that attitude,      
                             Bm
They all got that attitude.

               D
Something they say,
             G2          D
Make up your mind, walk away,
   Bm               D 
Oh oh never happen again,
                 G2            D  
They've all gone wrong, gone insane.

       Bm                        D  
That's why they all just walked away,
                  G2 
There was nothing wrong,
               D
Didn't want to say.
          Bm                            D
Oh that's why they listened to somebody else,
              G2 
I did nothing wrong,
                D
Nothing I could say.
       Bm          D
That's why, that's why,
       G2          D
That's why, that's why,

Video Clip de Them


ACORDES PARA GUITARRA

PIANO UKELELE
Bm
D
G2
A


TOP 20: Las más tocadas de The Cranberries


Acordes

Cerrar
Bm
D
G2
A

17.18

x

175