When You Are Gone (Acordes)

The Cranberries

Subida por faselito

Compartir


Imprimir FAQ
+A
-A

Texto

Desplazamiento

Transportador

Color de Fondo

Archivos

-A
+A
[Intro]


         Eb
E|---3-------------------------|
B|---------4-------------------|
G|---------------3-------------|
D|-----------------------------|
A|-----------------------------|
E|-----------------------------|

        Cm
E|---3-------------------------|
B|----------4------------------|
G|----------------5------------
D|-----------------------------|
A|-----------------------------|
E|-----------------------------|

        Gm
E|---3-------------------------|
B|---------3-------------------|
G|---------------3-------------|
D|-----------------------------|
A|-----------------------------|
E|-----------------------------|

         Bb
E|---6-------------------------|
B|---------3-------------------|
G|---------------3-------------|
D|-----------------------------|
A|-----------------------------|
E|-----------------------------|

Eb  Cm  Gm  Bb )

 Eb         Cm
Hold on to love
             Gm
That is what I do
               Bb
Now that I've found you
Eb         Cm
And from above
               Gm
Everything's stinking
            Bb
They're not around you
    Eb
And in the night
            Cm
I could be helpless
            Gm                       Bb
I could be lonely, sleeping without you
    Eb                        Cm
And in the day, everything's complex
                 Gm                 Bb
There's nothing simple when I'm not around you

       Eb                   Cm
But I miss you when you're gone
          Gm    Ab
That is what I do

Hey baby
Eb                 Cm
It's hard to carry on
             Gm  Ab
That is what I knew

Hey baby

 Eb         Cm
Hold on to my hands
            Gm
I feel I'm sinking
            Bb
Sinking without you
Eb         Cm
And to my mind
               Gm
Everything's stinking
          Bb
Stinking without you
    Eb                       Cm
And in the night I could be helpless
            Gm                  Bb
I could be lonely, sleeping without you
    Eb                        Cm
And in the day, everything's complex
                 Gm
There's nothing simple
               Bb
When I'm not around you

       Eb                   Cm
And I miss you when you're gone
             Gm  Ab
That is what I  do

Hey baby
Eb                Cm
And it's hard to carry on
             Gm  Ab
That is what I  do

Video Clip de When You Are Gone


ACORDES PARA GUITARRA

PIANO UKELELE
Eb
Cm
Gm
Bb
Ab


TOP 20: Las más tocadas de The Cranberries


Acordes

Cerrar
Eb
Cm
Gm
Bb
Ab

21.24

x

64