The Milkman's Horse

The Libertines

Acordes

Anthems for Doomed Youth (2015)
Subida por Issa



Cambiar Cifrado
Americano Latino

Cambiar Tonalidad
-1 +1

Partir Pantalla Imprimir FAQ

+A
-A
	  hide this tabHide tab

G C
E|-----------------------------------------| |--------------------------------------|
B|--3-3-3-3-3--0-0-0-----------------------| |--1-1-1-1-1-1-1-1---------------------|
G|-----------------------------------------| 2x |--------------------------------------| 2x
D|--------------------5--4-4-4-4-4-4-4-----| |-------------------4-4-4-4-4-4-4-4----|
A|-----------------------------------------| |--------------------------------------|
E|-----------------------------------------| |--------------------------------------| tab


G B
They just don't make that kind of license anymore
C
That way of life anymore
Cm
That type of world anymore

G D
What you've done, get out of my dreams you scum
Am
They weren't meant for anyone
Cm
They weren't meant for anyone but me

G
In my cinematic mind
B
I see battles fought at sea
C
I awake in dawn's empire
Cm
It must be lonely being you being me

G D
What you've done, get out of my dreams you scum
Am Cm
They weren't meant for anyone but me
G D
What you've done, I just get so over-run
Am Cm
Impossible dreams they come for me... For me

tabchorus G C
E|-----------------------------------------|--------------------------------------|
B|--3-3-3-3-3--0-0-0-----------------------|--1-1-1-1-1-1-1-1---------------------|
G|--------------------------------------x2-|-----------------------------------x2-|
D|--------------------5--4-4-4-4-4-4-4-----|------------------4-4-4-4-4-4-4-4-----|
A|-----------------------------------------|--------------------------------------|
E|-----------------------------------------|--------------------------------------|tab

G
It's for the worlds they never see
This beatific revelry
C
By windswept kisses heavens rave
Lovers rise and fall and fall and rise again
G D
What you've done, get out of my dreams you scum
Am Cm
They weren't meant for anyone but me
G D
What you've done, I just get so over-run
Am Cm
These unthoughtful dreams they come for me
G D
What you've done, get out of my dreams you scum
Am Cm D D# F G
They weren't meant for anyone but me... but me

NUEVO FORO DE MÚSICA

¿Tienes alguna duda, consulta, pregunta, consejo o algo para compartir sobre esta canción?

¡Puedes abrir un hilo en el FORO para que la comunidad te ayude! Hacer una pregunta

ACORDES PARA GUITARRA

PIANO UKELELE
G
C
B
Cm
D
Am
D#
F


Las más tocadas de The Libertines

G
C
B
Cm
D
Am
D#
F