What Katie Did

The Libertines

Acordes

The Libertines (2004)
Subida por joam


Más Versiones
Ver. 2 Ver. 3

Cambiar Cifrado
Americano Latino

Cambiar Tonalidad
-1 +1

Partir Pantalla Imprimir FAQ

+A
-A


Ver solo la LETRA
	  Intro: A, C#m, F#m, D, Dm 


A,C#m,F#m ,D,Dm,A ,C#m,F#m ,D,Dm
Shoop, shoop, shoop delang, delang. x8

Verse:
A C#m F#m
What you gonna do Katie? You're a sweet, sweet girl.
D Dm A
But it's a cruel, cruel world, a cruel, cruel world.
C#m F#m
My pins are none too strong Katie. Hurry up missus Brown,
D Dm A
I can feel'em coming down and it won't take none too long.


Pre Chorus:
Ab G F# Bm
But since you said goodbye, the polka-dots filled my eyes,
Esus4 A
And I don't know why,

Chorus:
Chords as explained above
Shoop, shoop, shoop delang, delang. x4

Verse:
C#m F#m
What you gonna do Katie? You're a sweet, sweet girl.
D Dm A
But it's a cruel, cruel world, a cruel, cruel world.
C#m F#m
Safety pins are none too strong Katie, They hold my
D Dm A
Life together and I never say never and I never say never again.

Pre Chorus:
Ab G F# Bm
But since you said goodbye, the polka-dots filled my eyes,
Esus4 A
And I don't know why.

Chorus:
Chords as explained above
Shoop, shoop, shoop delang, delang. x4

Free Time:
A F# Bm
But since you said goodbye, the polka-dots filled my eyes,
E7 A6
And I don't know why.

Chorus:
Chords as explained above
Shoop, shoop, shoop delang delang. x16

Free Time:
A F# Bm7
But since you said goodbye, the polka-dots filled the sky,
E A6
And I don't know why.

-----------------------------------------------------------------------------------------
Lead Parts
-----------------------------------------------------------------------------------------
hide this tabHide tabElec. Gtr 1 Intro

e|-x-x--9--9--9--9--9--9--9--9--9----9--9----9--9--9--9-9-9-9-9-9-9-|
B|-x-x--10-10-10-10-10-10-10-10-10---10-10---10-10-9--9-9-9-9-9-9-9-|
G|-x-x--9--9--9--9--9--9--9--9--9----9--9----9--9--9----------------|
D|------------------------------------------------------------------|
A|------------------------------------------------------------------|
E|------------------------------------------------------------------|

e|-9-9----9-9----9-9-10-10-10-10-10-9--9--9--9--9----9----9--9--9---|
B|-9-9----9-9----9-9-10-10-10-10-10-10-10-10-10-10---10---10-10-10--|
G|------------------------------------------------------------------|
D|------------------------------------------------------------------|
A|------------------------------------------------------------------|
E|------------------------------------------------------------------|

e|-9--9--9----9-9-9-9-9-9-9-9-9----9--9-9-9-0-0--9--9--9--9--9--9---|
B|-10-10-9----9-9-9-9-9-9-9-9-9----9--9-9-9-0-0--10-10-10-10-10-10--|
G|-----------------------------------------------9--9--9--9--9--9---|
D|------------------------------------------------------------------|
A|------------------------------------------------------------------|
E|------------------------------------------------------------------|

e|-9--9----9----9--9--9--9--9-9-9-9-9-9-9-9-9-9----9----9---9--9--9-|
B|-10-10---10---10-10-10-10-9-9-9-9-9-9-9-9-9-9----9----9---9--9--9-|
G|-9--9----9----9--9--9--9--9----------------------9----9---9--9--9-|
D|------------------------------------------------------------------|
A|------------------------------------------------------------------|
E|------------------------------------------------------------------|tab

NUEVO FORO DE MÚSICA

¿Tienes alguna duda, consulta, pregunta, consejo o algo para compartir sobre esta canción?

¡Puedes abrir un hilo en el FORO para que la comunidad te ayude! Hacer una pregunta

ACORDES PARA GUITARRA

PIANO UKELELE
A
C#m
F#m
D
Dm
Ab
G
F#
Bm
Esus4
E7
A6
Bm7
E


Las más tocadas de The Libertines

A
C#m
F#m
D
Dm
Ab
G
F#
Bm
Esus4
E7
A6
Bm7
E