You're My Waterloo

The Libertines

Acordes

Anthems for Doomed Youth (2015)
Subida por Carimonteserin


Más Versiones
Ver. 2

Cambiar Cifrado
Americano Latino

Cambiar Tonalidad
-1 +1

Partir Pantalla Imprimir FAQ

+A
-A
	  Intro: 

hide this tabHide tab C
E|--------------------------------------------------------|
B|-------8------------------------------------------------|
G|-9--10---10--9--7----7--9--7----------------------10--9-|
D|------------------10----------10--9--9--10-9-7----------|
A|--------------------------------------------------------|
E|--------------------------------------------------------|
F, E
E|----------------------7--8--7--7--8--7--10--------------|
B|-------8-------8--10------------------------------------|
G|-9-10---10--9------------------------------10--9--------|
D|--------------------------------------------------------|
A|--------------------------------------------------------|
E|--------------------------------------------------------|tab

C E
You'll never fumigate the demons
Am F E
No matter how much you smoke
C E
Just say you love me for three good reasons
Am F E
And I'll throw you the rope
E
You don't need it
C E
Cause you are the survivor
Am F E
Of more than one life
C E
And you're the only lover I had
Am F E
Who ever slept with a knife
C E
But you're not Judy Garland
Am
Oh just like me
F E
You've never really had a home (of your Own)
C E
But I'm not Tony Carter, baby
A,
Until the day
F E
We stone the crows
F E
We stone the crows

Break:
A E (underneath riff)
A E

NUEVO FORO DE MÚSICA

¿Tienes alguna duda, consulta, pregunta, consejo o algo para compartir sobre esta canción?

¡Puedes abrir un hilo en el FORO para que la comunidad te ayude! Hacer una pregunta

ACORDES PARA GUITARRA

PIANO UKELELE
C
F
E
Am
A


Las más tocadas de The Libertines

C
F
E
Am
A