Compartir


Imprimir FAQ
+A
-A

Texto

Desplazamiento

Transportador

Color de Fondo

Archivos

-A
+A
Crazy horses
Osmond brothers
i think this tab is 100% perfect



Intro (also main riff)

|----------------------------------------------|
|----------------------------------------------|
|----------------------------------------------|
|-555-7-7-7------------------------------------|
|-555-7-7-7------------------------------------|  repeat 3x
|-333-5-5-5------------------------------------|

|----------------------------------------------|
|----------------------------------------------|
|-----------------5-7--------------------------|
|-555-7-555-7-555-5-7-7------------------------|
|-555-7-555-7-555-3-5-7------------------------|
|-333-5-333-5-333-----5------------------------|

Pre chorus (part: wath a show baby go smoking up the sky jeah)
|----------------------------------------------|
|----------------------------------------------|
|----------------------------------------------|
|3--5-555-7-7-7-555-7-555-7--------------------| repeat 2x
|3--5-555-7-7-7-555-7-555-7--------------------|
|1--3-333-5-5-5-335-5-333-5--------------------|
              Tremelo vibrato
                / 
|--------------17--17----------------------------|
|--------------17--17----------------------------|
|----------------------------------------------|   Repeat 2x
|555-7-7-7-------------------------------------|
|555-7-7-7-------------------------------------|
|333-5-5-5-------------------------------------|

return to main riff
Pre chorus 

Solo

|----10/12--10-12----------------------------------|
|-12--------------12-10----------------------------|
|-----------------------12--12-10-12-10------------|
|----------------------------------------12-12-----|
|--------------------------------------------------|
|--------------------------------------------------|

|----------------------------------------------|
|----------------12-10-12-1010-10--------------|
|-12-10-12-10----12-10-12-1010-10--------------| repeat 2x
|-12-10-12-10----------------------------------|
|----------------------------------------------|
|----------------------------------------------|

Pre chorus (so take a good look around, see what they done, what they done)  
Chorus

Outro
                tremelo vibrato
                  /   
|----------------17--17-------------|
|----------------17--17-------------|
|-----------------------------------|
|555-7-7-7--------------------------|
|555-7-7-7--------------------------|  Fade out
|333-5-5-5--------------------------|

Enjoy 

Video Clip de Crazy Horses


ACORDES PARA GUITARRA

PIANO UKELELE


TOP 20: Las más tocadas de The Osmonds


Toca una Canción al Azar de The Osmonds

Acordes

Cerrar

10.42

x

128