Such Great Heights

The Postal Service

Acordes

Give Up (2003)
Subida por antsoni


Más Versiones
Ver. 2 Ver. 3 Ver. 4

Cambiar Cifrado
Americano Latino

Cambiar Tonalidad
-1 +1

Partir Pantalla Imprimir FAQ

+A
-A


Ver solo la LETRA
(intro)

E|-------------------------------------------------------|
B|-----------------------------------------8-------------|
G|-9-9-9-9-5-5-5-5-9-9-9-9-7-7-7-7-7-7-7-9---------------| (4x)
D|-------------------------------------------10-10-10-10-|
A|-------------------------------------------------------|
E|-------------------------------------------------------|

E|-------------------------------------------------------|
B|-------------------------------------------------------|
G|-9-9-9-9-5-5-5-5-9-9-9-9-7-7-7-7-7-7-7-7-7-7-7-7-7-----|
D|-------------------------------------------------------|
A|-------------------------------------------------------|
E|-------------------------------------------------------|

(essa parte entra na 3ª vez, no final)
E|-----------------------------------------------------------------|
B|-----------------------------------------------------------------|
G|-----------------------------------------------------------------|
D|-----------------------------------------------------------------|
A|-----------------------------------------------------------------|
E|--11111111-55555555-33333333--11111111-55555555-3333333333333333-|

(parte 1)
F Am
I am thinking it's a sign that the freckles
Gm A#
In our eyes are mirror images and when
Am
We kiss they're perfectly aligned
F Am
And I have to speculate that God himself
Gm A#
Did make us into corresponding shapes like
Am
Puzzle pieces from the clay
F Am
True, it may seem like a stretch, but
Gm
Its thoughts like this that catch my troubled
A# Am
Head when you're away when I am missing you to death
F Am
When you are out there on the road for
Gm
Several weeks of shows and when you scan
A# Am
The radio, I hope this song will guide you home

(refrão)

F C
They won't see us waving from such great
A# Am
Heights, 'come down now,' they'll say
F C
But everything looks perfect from far away,
A# Am
'come down now,' but we'll stay...

(parte 2)
F Am
I tried my best to leave this all on your
Gm A#
Machine but the persistent beat it sounded
Am
Thin upon listening
F Am
That frankly will not fly. you will hear
Gm
The shrillest highs and lowest lows with
A# Am
The windows down when this is guiding you home

(refrão)

(solo 4x)
E|------------------------------------------------------------------------|
B|------------------------------------------------------------------------|
G|-10-10-10-10-10-10-10h12p10-9--9-9-9-9-9-9-9h10p9-7--7-7-7-7-7-7-7-5--5-|
D|------------------------------------------------------------------------|
A|------------------------------------------------------------------------|
E|------------------------------------------------------------------------|

(refrão)

(fim)
E|--3/--|
B|--5/--|
G|--5/--|
D|--5/--|
A|--3/--|
E|--3/--|

NUEVO FORO DE MÚSICA

¿Tienes alguna duda, consulta, pregunta, consejo o algo para compartir sobre esta canción?

¡Puedes abrir un hilo en el FORO para que la comunidad te ayude! Hacer una pregunta

ACORDES PARA GUITARRA

PIANO UKELELE
F
Am
Gm
A#
C


Las más tocadas de The Postal Service

F
Am
Gm
A#
C