Brass in Pocket
The Pretenders
Acordes

Subida por Carlottaaf
Álbum: Pretenders ( 1980)


Más Versiones
Ver. 2 Ver. 3 Ver. 4
HERRAMIENTAS

Cambiar Cifrado
Americano Latino

Cambiar Tonalidad
-1 +1

Partir Pantalla Imprimir FAQ

Ver solo la LETRA

+A
-A
LETRA CON ACORDES

¿Tu Guitarra esta Afinada? PRUEBA NUESTRO NUEVO AFINADOR

INTRO:
>e------------------------------------------------------------------
>B--3--3--2---------------------------------------------------------
>G--2--2--2---------------------------------------------------------
>D--2--2--2---------------------------------------------------------
>A--0------0--------------------------------------------------------
>E------------------------------------------------------------------

RIFF 1 *  Feito durante os acordes A e F#m, e a primeira parte se repete no acorde E do interlúdio.
>e---------------------------------------------------------------
>B---2--2--2--0----------3--3--3--2------------------------------
>G---2--2--2--2----------2--2--2--2------------------------------
>D---------------------------------------------------------------
>A---------------------------------------------------------------
>E---------------------------------------------------------------

A
I got brass in my pocket
I got powder and I'm gonna use it
F#m                         D
  Intention, I'm feelin g myself
   E
Gonna make you, make you, make you notice
A
Commotion extreme emotion
I've been driving Detroit leaning
F#m                          D
  No reason just seems so pleasing
                   E
Gonna make you, make you, make you notice

E
Gonna use my arms
Gonna use my legs
Gonna use my style
Gonna use my senses
Gonna use my fingers
Gonna use my, my, my imagination

     A
'Cos I'm gonna make you see
                F#m
There's nobody else here
No one like me
      D
I'm special, so special
    E
I got to have some of your attention, give it to me

I got rhythm, can't miss the beat
It's got me scared and so sweet
I got something I'm winking at you
Gonna make you, make you, make you notice

Gonna use my arms
Gonna use my legs
Gonna use my style
Gonna use my senses
Gonna use my fingers
Gonna use my, my, my imagination

'Cos I'm gonna make you see
There's nobody else here
No one like me
I'm special, so special
I got to have some of your attention, give it to me////////////////// ¿Te Animas? Sube una canción a este sitio. //////////////////

ACORDES PARA GUITARRA

PIANO UKELELE
A
F#m
E
D


COMENTARIOS

Aún no hay comentarios,

¡escribe el primero!

Escribe una pregunta, duda o comentario sobre esta canción, te responderemos a la brevedad.

Las canciones más tocadas de The Pretenders

Toca una Canción al Azar de The Pretenders
A
F#m
E
D

02.37


Nuestro servidor se demoró 1.98 segundos en generar esta página. Tenemos tiempos mejores...Claramente hay conexiones mas rápidas...