Mystery Achievement
The Pretenders
Acordes

Subida por jazlopez84
Álbum: Pretenders ( 1980)



Cambiar Cifrado
Americano Latino

Cambiar Tonalidad
-1 +1

Partir Pantalla Imprimir FAQ

+A
-A


Ver solo la LETRA
Tabbed By:Gary Hricewich
E-mail:*


Verse
G------------------|---------------|
D------------------|-------------2-|
A---4--4--4-2-0-2--|-0--0--0-2-4---|
E------------------|---------------|


Chorus
G-----------|---------|---------|---------|---------|---------|---------|
D-----------|---------|---------|---------|---------|---------|---------|
A---5-5-5-5-|---------|-5-5-5-5-|---------|-5-5-5-5-|---------|-5-5-5-5-|
E-----------|-3-3-3-3-|---------|-3-3-3-3-|---------|-3-3-3-3-|---------|



G-----------|------------|------------|------------|------------|
D-----------|------------|------------|------------|------------|
A-----------|-5-5-5--5-5-|------------|-5-5-5--5-5-|------------|
E---3-3-3-3-|------------|-3-3-3--3-3-|------------|-3-3-3--3-3-|



G-------------------|-----------------|-----------------|-----------------|
D-------------------|-----------------|-----------------|-----------------|
A---5-5-5-5-5-5-5-5-|-----------------|-----------------|-5-5-5-5-5-5-5-5-|
E-------------------|-3-3-3-3-3-3-3-3-|-5-5-5-5-5-5-5-5-|-----------------|

ACORDES PARA GUITARRA

PIANO UKELELE


COMENTARIOS

Aún no hay comentarios,

¡escribe el primero!

Escribe una pregunta, duda o comentario sobre esta canción, te responderemos a la brevedad.

Las más tocadas de The Pretenders

Toca una Canción al Azar de The Pretenders