Mystery Achievement
The Pretenders
Acordes

Subida por jazlopez84
Álbum: Pretenders ( 1980)



HERRAMIENTAS

Cambiar Cifrado
Americano Latino

Cambiar Tonalidad
-1 +1

Partir Pantalla Imprimir FAQ

Ver solo la LETRA

+A
-A
LETRA CON ACORDES

¿Tu Guitarra esta Afinada? PRUEBA NUESTRO NUEVO AFINADOR

Tabbed By:Gary Hricewich
E-mail:*

                                    
 Verse 
G------------------|---------------|
D------------------|-------------2-|
A---4--4--4-2-0-2--|-0--0--0-2-4---|
E------------------|---------------|
                                    
                                                                           
 Chorus   
G-----------|---------|---------|---------|---------|---------|---------|
D-----------|---------|---------|---------|---------|---------|---------|
A---5-5-5-5-|---------|-5-5-5-5-|---------|-5-5-5-5-|---------|-5-5-5-5-|
E-----------|-3-3-3-3-|---------|-3-3-3-3-|---------|-3-3-3-3-|---------|
                                                                           
                                                                 
  
G-----------|------------|------------|------------|------------|
D-----------|------------|------------|------------|------------|
A-----------|-5-5-5--5-5-|------------|-5-5-5--5-5-|------------|
E---3-3-3-3-|------------|-3-3-3--3-3-|------------|-3-3-3--3-3-|
                                                                 
                                                                           
 
G-------------------|-----------------|-----------------|-----------------|
D-------------------|-----------------|-----------------|-----------------|
A---5-5-5-5-5-5-5-5-|-----------------|-----------------|-5-5-5-5-5-5-5-5-|
E-------------------|-3-3-3-3-3-3-3-3-|-5-5-5-5-5-5-5-5-|-----------------|////////////////// ¿Te Animas? Sube una canción a este sitio. //////////////////

ACORDES PARA GUITARRA

PIANO UKELELE


COMENTARIOS

Aún no hay comentarios,

¡escribe el primero!

Escribe una pregunta, duda o comentario sobre esta canción, te responderemos a la brevedad.

Las canciones más tocadas de The Pretenders

Toca una Canción al Azar de The Pretenders

12.09


Nuestro servidor se demoró 0.01 segundos en generar esta página. Eso fue realmente muy rápido!