Forever Now
The Psychedelic Furs
Acordes

Subida por dj12
Álbum: Forever Now ( 1982)


Más Versiones
Ver. 2

HERRAMIENTAS

Cambiar Cifrado
Americano Latino

Cambiar Tonalidad
-1 +1

Partir Pantalla Imprimir FAQ

+A
-A

LETRA CON ACORDES

¿Tu Guitarra esta Afinada? PRUEBA NUESTRO NUEVO AFINADOR

	  



CAPO: 0
TUNING: standard


note - there is also a bass tab

---INTRO---


C C F Dm
|----|----|----|----|

C C F Dm
|----|----|----|----|


---verse 1---
C F
A banker in a tired suit is counting in his head
C F
He's standing in your overcoat, he's lying on your bed
C F
President gas is tap dancing for the banker he's a thief
C F
He isn't very honest but he's obvious at least


tabchorus Bb F C
You and I are walking past, yeah
Bb Dm C
Having lost our way
Bb F C
We don't count our money
Bb F C
We are giving it away, yeah giving it away tab

---Instrumental 1---

C C F Dm
|----|----|----|----|
C C F Dm
|----|----|----|----|


---verse 2---
C F
Oh this policeman is just sitting down in sunglasses and dirt
C F
Undercover now at least so nobody gets hurt
C F
They go through this pantomime, they do it everyday
C F
They'll be back again tomorrow but they don't play for free


tabchorus
Bb F C
You and I are walking past, yeah
Bb Dm C
Having lost our way
Bb F C
We don't count our money
Bb F C
We are giving it away, yeah giving it away tab


---Instrumental 1---


hide this tabHide tab
Am C B E x3
e|---------|-------------|-------------|-------------|
B|---------|-13-12-------|-------------|-------------|
G|---------|-------12----|-11----------|-------------|
D|---------|-------------|-------------|-14----------|
A|---------|-------------|-------------|-------------|
E|---------|-------------|-------------|-------------|

Am C B E
e|---------|-------------|-------------|-------------|
B|---------|-13----12----|-13----12----|-13----12----|
G|---------|----14----12-|----14----12-|----14---12--|
D|---------|-------------|-------------|-------------|
A|---------|-------------|-------------|-------------|
E|---------|-------------|-------------|-------------|tab

C C F Dm
|----|----|----|----|
C C F Dm
|----|----|----|----|



---verse 3---
C F
Doesn't this remind you of these things we've done before
C F
Like counting all the times, we've seen ourselves in other scenes
C F
Everybody's busy listening and pulling blinds
C F
This is all so stupid, we're just shouting I want

---Chorus---

Bb F C
You and I are walking past, yeah
Bb Dm C
Having lost our way
Bb F C
We don't count our money
Bb F C
We are giving it away, yeah giving it away


C C F Dm
|----|----|----|----|

C C F Dm
|----|----|----|----|

---ENDING---
C F
Let it stay forever now
C F
Let it stay forever now (if 2 guitars can layer in outro here)
C F
Let it stay forever now
C F
Let it stay forever now

---OUTRO---

hide this tabHide tab C F REPEAT
e|-----------|--------------------------|--------
B|-10--------|-13-----------------------|--------
G|----12--9--|----12-10-----------------|--------
D|-----------|----------14-12-14-12-10--|--------
A|-----------|--------------------------|--------
E|-----------|--------------------------|--------tab
////////////////// ¿Te Animas? Sube una canción a este sitio. //////////////////

ACORDES PARA GUITARRA

PIANO UKELELE
C
F
Dm
Bb
Am
B
E


COMENTARIOS

Aún no hay comentarios,

¡escribe el primero!

Escribe una pregunta, duda o comentario sobre esta canción, te responderemos a la brevedad.

Las canciones más tocadas de The Psychedelic Furs

Toca una Canción al Azar de The Psychedelic Furs
C
F
Dm
Bb
Am
B
E

23.31


Nuestro servidor se demoró 0.07 segundos en generar esta página. Eso fue realmente muy rápido!