On Your Side

The Radio Dept.

Acordes

Subida por Carito



Cambiar Cifrado
Americano Latino

Cambiar Tonalidad
-1 +1

Partir Pantalla Imprimir FAQ

+A
-A
The Radio Dept.

On Your Side
Never Follow Suit EP (2010)


CAPO: 4th fret

Riff:

E|---------------------------------------------------------------------------------------|
B|--1-1-1-1-1-1-1-1-1---3-3-3-3-3-3-3-3--0-0-0-0-----------------------------------------|
G|---------------------------------------------------------------------------------------|
D|---------------------------------------------------------------------------------------|
A|---------------------------------------------------------------------------------------|
E|---------------------------------------------------------------------------------------|

C                        Em
And we will never follow suit
C           Em
We stay off route
C              Em 
We're unstoppable
C                                  Em
When you find yourself at a loose end
F                         G
You know you have a friend
G                 C
Who's on your side

C Fmaj7 C Fmaj7 C Cmaj7 x2

C                        Em
And we will never follow suit
C           Em
We stay off route
C              Em 
We're unstoppable
C                                  Em
When you find yourself at a loose end
F                         G
You know you have a friend
G                 C
Who's on your side

Dm G x4

C          Fmaj7
I'm on your side
C          Fmaj7
I'm on your side

C Cmaj7

C          Fmaj7 
And another thing,
C          Fmaj7
I'm on your side

C Cmaj7

Outro:


E|-------7-8-7---------------------------------------------------------------------------|
B|--8-----------8---5--8--------3--5--3--0-----0-----0-1-0-------------------------------|
G|------------------------------------------0--------------0---0-------------------------|
D|-----------------------------------------------------------2---2-----------------------|
A|---------------------------------------------------------------------------------------|
E|---------------------------------------------------------------------------------------|

NUEVO FORO DE MÚSICA

¿Tienes alguna duda, consulta, pregunta, consejo o algo para compartir sobre esta canción?

¡Puedes abrir un hilo en el FORO para que la comunidad te ayude! Hacer una pregunta

ACORDES PARA GUITARRA

PIANO UKELELE
C
Em
F
G
Fmaj7
Cmaj7
Dm


Las más tocadas de The Radio Dept.

C
Em
F
G
Fmaj7
Cmaj7
Dm