Anybody Seen my Baby
The Rolling Stones
Acordes

Subida por juantonio
Álbum: Bridges to Babylon ( 1997)


Más Versiones
Ver. 2 Ver. 3 Ver. 4 Ver. 5 Ver. 6
+A
-A
 

bass riff
D|--------------------2-------------
A|-----0--3--5---------------5--3--0

after the bass riff
E|---------------------------------
B|----------5--6---5---------------
G|----------5------5---------------
D|---------------------------------

during the verse
E|--------------0--------------------------- play
B|--------------0------------------------------
G|--------------9------------------------------
D|--------------10-----------------------------
A|---------------------------------------------

SHE CONFESSED HER LOVE TO ME
THEN SHE VANISHED ON THE BREEZE
TRYING TO HOLD ON TO THAT
WAS JUST IMPOSSIBLE.

SHE WAS MORE THAN BEAUTIFUL
CLOSER TO ETHEREAL
WITH A KIND OF DOWN TO EARTH FLAVOR.

Am9
CLOSE MY EYES
IT'S THREE IN THE AFTERNOON
THEN I REALIZE THAT SHE'S REALLY
Em
GONE FOR GOOD.


chorus.
C9 D/C Em
ANYBODY SEEN MY BABY
C9 D/C Em
ANYBODY SEEN HER AROUND

LOVE HAS GONE
C9 D/C
AN MADE ME BLIND
Em
I?VE LOOKED BUT I JUST CAN?T FIND
C9
SHE HAS GOTTEN LOST
D/C Em
IN THE CROWD


I WAS FLIPPIN? MAGAZINES
IN THE PLACE OF MERCER STREET
WHEN I THOUGHT I SPOTTED HER.

GETTING ON A MOTOR BIKE
LOOKING RATHER LADY LIKE
DIDN?T SHE JUST GIVE ME A WAVE

SALTY TEARS
IT?S THREE IN THE AFTERNOON
HAS SHE DISAPPEARED
IS SHE REALLY GONE FOR GOOD

Chorus:
ANYBODY SEEN MY BABY
ANYBODY SEEN HER AROUND
IF I JUST CLOSE MY EYES
I REACH OUT
AND TOUCH THE PRIZE
ANYBODY SEEN HER AROUND

(RAP)

ANYBODY SEEN MY BABY
ANYBODY SEEN HER AROUND
IF I JUST CLOSE MY EYES
I REACH OUT
AND TOUCH THE PRIZE
ANYBODY SEEN HER AROUND

LOST, LOST AND NEVER FOUND
I MUST HAVE CALLED HER
A THOUSAND TIMES
SOMETHING I THINK
SHE?S JUST IN MY IMAGINATION

?LOST IN THE CROWD?

SOLO
E|---------12-14-12-14-14b15-14-12h14-12--
B|----------------------------------------
G|----------------------------------------
D|----------------------------------------
E|----------------------------------------

ACORDES PARA GUITARRA

PIANO UKELELE
Am9
Em
C9
D/C


COMENTARIOS

Aún no hay comentarios,

¡escribe el primero!

Escribe una pregunta, duda o comentario sobre esta canción, te responderemos a la brevedad.

Las más tocadas de The Rolling Stones

Toca una Canción al Azar de The Rolling Stones
Am9
Em
C9
D/C