Under My Thumb
The Rolling Stones
Acordes

Subida por Niko23
Álbum: Aftermath ( 1966)


Más Versiones
Ver. 2 Ver. 3 Ver. 4 Ver. 5

Cambiar Cifrado
Americano Latino

Cambiar Tonalidad
-1 +1

Partir Pantalla Imprimir FAQ

+A
-A


Ver solo la LETRA
Intro:
F#m F#m E E D D D D
E|----------------------------------------------------------------------|
B|----------------------------------------------------------------------|
G|-----2--4--6----------1--2--4-------------0--2-------------0--2-------| x6
D|--4-----------4-4--2-----------2-2--0--4--------0-0--0--4--------0-0--|
A|----------------------------------------------------------------------|
E|----------------------------------------------------------------------|

F#m
Under my thumb
E D
The girl who once had me down,
F#m
Under my thumb
E D
The girl who once pushed me around,

A
It's down to me
D B
The diff'rence in the clothes she wears
F#m
It's down to me
E A
The change has come, she's under my thumb


F#m
Under my thumb
E D
A squirming dog who`s just had her days
F#m
Under my thumb
E D
A girl who has just changed her ways

A
It's down to me
D B
The way she does just what she's told
F#m
It's down to me
E A
The change has come, she's under my thumb

F#m
Under my thumb
E D
A siamese cat of a girl
F#m
Under my thumb
E D
She's the sweetest pet in the world

E|----------------------------------------------------------------------|
B|----------------------------------------------------------------------|
G|----------------------------------------------------------------------|
D|--------2-----4-----------2---------------------------------------2--4|
A|---2h4-----4---------2h4-----2-0-2-0------0-2-0--4-2-0----0-2-0-4-----|
E|----------------------------------------------------------------------|

E|----------------------------------------------------------------------|
B|----------------------------------------------------------------------|
G|----------------------------------------------------------------------|
D|---2----------------2-------------------------------------------------|
A|-4---2------0-2-0-4---------------------------------------------------|
E|----------------------------------------------------------------------|

A
It's down to me
D B
the way she talks when she's spoken to
F#m
It's down to me
E A
The change has come, she's under my thumb


A
It's down to me older
D B
the way she talks when she's spoken to
F#m
It's down to me
E A
The change has come, she's under my thumb


F#m
Under my thumb
E D
Her eyes are just kept to herself
F#m
Under my thumb
E D
Well I, I can still look at someone else


A
It's down to me older
D B
the way she talks when she's spoken to
F#m
It's down to me
E A
The change has come, she's under my thumb

ACORDES PARA GUITARRA

PIANO UKELELE
F#m
E
D
A
B


COMENTARIOS

Aún no hay comentarios,

¡escribe el primero!

Escribe una pregunta, duda o comentario sobre esta canción, te responderemos a la brevedad.

Las más tocadas de The Rolling Stones

Toca una Canción al Azar de The Rolling Stones
F#m
E
D
A
B